Pursuit Of Happiness - Completely Conspicuous Chords & Tabs

 

Completely Conspicuous Chords & Tabs

Pursuit Of Happiness Chords & Tabs

Version: 1 Type: Tab 0 ratings
1 star 2 stars 3 stars 4 stars 5 stars
comments

Completely Conspicuous Tab

Canadian band led by Moe Berg.  

This song comes off the Where's the Bone album, track #6.

Spoken:  We can't hear anything, We're not hearing any of the instruments.

Rhythm Guitar
                                                           
E||---------------------------|---------------------------|
B||---------------------------|---------------------------|
G||--9----9----9----9----9----|---------------------------|
D||--9----9----9----9----9----|--9----9----9----9----9----|
A||--7----7----7----7----7----|--9----9----9----9----9----|
E||---------------------------|--7----7----7----7----7----|

We were just talking, no need to get ridiculous...
                                                            
------------------------------|---------------------------|
------------------------------|---------------------------|
------------------------------|---------------------------|
--10----10----10----10----10--|--7----7----7----7----7----|
--10----10----10----10----10--|--7----7----7----7----7----|
--8-----8-----8-----8-----8---|--5----5----5----5----5----|

                                                                  
------------------------------|---------------------------|
------------------------------|---------------------------|
--8--------9----9-------------|--------8--------9----9----|
--8--------9----9-------------|--------8--------9----9----|
--6--------7----7-------------|--------6--------7----7----|
------------------------------|---------------------------|

                                                          3x
------------------------------|---------------------------||
------------------------------|---------------------------||
--6--------7----7-------------|-------6--------7----7----*||
--6--------7----7-------------|-------6--------7----7----*||
--4--------5----5-------------|-------4--------5----5-----||
------------------------------|---------------------------||
[ Tab from: http://www.guitartabs.cc/tabs/p/pursuit_of_happiness/completely_conspicuous_tab.html ]
Chorus                                                        
------------------------------|---------------------------|
------------------------------|---------------------------|
------------------------------|---------------------------|
--7----7----7----7----7-------|--9----9----9----9----9----|
--7----7----7----7----7-------|--9----9----9----9----9----|
--5----5----5----5----5-------|--7----7----7----7----7----|

She's just a friend.....
                                                        
------------------------------|---------------------------|
------------------------------|---------------------------|
--9----9----9----9----9-------|--6----6----6----6----6----|
--9----9----9----9----9-------|--6----6----6----6----6----|
--7----7----7----7----7-------|--4----4----4----4----4----|
------------------------------|---------------------------|

                                                        
------------------------------|---------------------------|
------------------------------|---------------------------|
------------------------------|---------------------------|
--7----7----7----7----7-------|--9----9----9----9----9----|
--7----7----7----7----7-------|--9----9----9----9----9----|
--5----5----5----5----5-------|--7----7----7----7----7----|

                                                                              
------------------------------|---------------------------|
------------------------------|---------------------------|
--6----6----6----6----6-------|--7----7----7----7----7----|
--6----6----6----6----6-------|--7----7----7----7----7----|
--4----4----4----4----4-------|--5----5----5----5----5----|
------------------------------|---------------------------|

                              
------------------------------|----------------------------||
------------------------------|----------------------------||
--9------8------9-------------|----8----9----8----9--------||
--9------8------9-------------|----8----9----8----9--------||
--7------6------7-------------|----6----7----6----7--------||
------------------------------|----------------------------||

Lead guitar is probably

------------------------------|
--------------------10(12)----|  pull up on the tremolo to get
------------------------------|  that siren effect (go one whole step)
------------------------------|
------------------------------|
------------------------------|

-------------------------12---|
----------------------12------| nothing real difficult, just switch
------------------------------| between these notes a couple of times
------------------------------| then go back to the first lead
------------------------------|
------------------------------|
Comments