Purple Gekko - She Dont Care Chords & Tabs

 

She Dont Care Chords & Tabs

Purple Gekko Chords & Tabs

Version: 2 Type: Tab 0 ratings
1 star 2 stars 3 stars 4 stars 5 stars
comments

She Dont Care Tab

   
She dont care
by Purple Gekko
----------------------
Hollow records


Verse
Am        Am9 Am     Am9 Am     Am Am9    Am9 Am
It was an act of momentary inspiration,
E         E7  E      E7  E      E7 E         E  E7 E
When you see someone you want for the first time,
Am        Am9 Am     Am9 Am     Am Am9    Am9 Am
And you swear to yourself at that very moment,
E         E7  E      E7  E      E7 E         E  E7 E
Your gonna make them yours for the rest of your life,

Bridge
Dm                          Am7
And when I call her up her lines engaged,
Dm                      E
How many times must I PAY!

Chorus
           Am
Cos I want her to be true,
	    E
And I need love just like you,
	   Am
And I want more than I own,
		E
When she sits there all alone.
		Am E               Am
But she?s not there?Cos she don?t care!


Verse2

I?ve never been more confused in a situation,
Talk about giving out the wrong vibes,
I really wish, she?d stop playing all these games,
I?m sick and  tired of being the only one that tries,

Bridge
[ Tab from: http://www.guitartabs.cc/tabs/p/purple_gekko/she_dont_care_tab_ver_2.html ]
And when I call her up her lines engaged,
How many times must I PAY!

Chorus

Cos I want her to be true,
And I need love just like you,
And I want more than I own,
When she sits there all alone,
But she?s not there?Cos she don?t care!

Solo


---8-8-8---5-5-5------------8-5-5-8-5-5-5--------|
-------------------5-5-5-------------------------|
-------------------------------------------------|
-------------------------------------------------|
-------------------------------------------------|
-------------------------------------------------|

---8-8-8---5-5-5------------8-5-5-8-5-5-5--------|
-------------------5-5-5-------------------------|
-------------------------------------------------|
-------------------------------------------------|
-------------------------------------------------|
-------------------------------------------------|

---8-8-8-8-8-12-12-12-12-12------8-8-8-15-13-12-12-12-12/17---17-17-17-|
-----------------------------------------------------------------------|
-----------------------------------------------------------------------|
-----------------------------------------------------------------------|
-----------------------------------------------------------------------|
-----------------------------------------------------------------------|

--17-17-17-17--17-17-17--|
-------------------------|
-------------------------|
-------------------------|
-------------------------|
-------------------------|

E

Am     F      Am    F    G     E   Am
Comments