Pupil - Dulo Ng Dila Chords & Tabs

 

Dulo Ng Dila Chords & Tabs

Pupil Chords & Tabs

Version: 1 Type: Tab

Dulo Ng Dila Tab

   
uhmm....wala lang

dulo ng dila by pupil..
tabbed by me.. joshua andres


intro
guitar 1
e|---------------------------------|
b|---------------------------------|
g|---55-55-55-5555-----------------| x2
d|---55-55-55-5555--7--9-----------|
a|---33-33-33-3333--7--9-----------|
E|----------------- 5--7-----------|

guitar 2
----------------------------------------------------|
----------------------------------------------------|
---55-555-5----------99999999s12.12.12.12.12.12.12--| x2
------------55-555-5-77777777s10.10.10.10.10.10.10--|
----------------------------------------------------|
----------------------------------------------------|

guitar 1
-----------------------------------------|
-----------------------------------------|
-----------------------------------------| x2
--33-333-3-55-555-5-77-777-7-99-999--9---|
--33-333-3-55-555-5-77-777-7-99-999--9---|
--11-111-1-33-333-3-55-555-5-77-777--7---|

guitar 2
-------------------------------------------------------------------------------------|
-------------------------------------------------------------------------------------|
---12--12--12--12--12--12--12--12s14.14.14.14.14.14.14.14----------------------------| x2
-----10--10--10--10--10--10--10--------------------------14.14.14.14.14.14.14.14-----|
-------------------------------------------------------------------------------------|
-------------------------------------------------------------------------------------|

verse 1..

C, G, A.. x4

e|--------------------------------|
b|--------------------------------|
g|---55-55-55-5555----------------| x3
d|---55-55-55-5555--7-------------|
a|---33-33-33-3333--7-------------|
E|----------------- 5-------------|

e|--------------------------------|
b|--------------------------------|
g|---55-55-55-5555----------------|
d|---55-55-55-5555--7-7-7-7-------|
a|---33-33-33-3333--7-7-7-7-------|
E|----------------- 5-5-5-5-------|

guitar 1
e|---------------------------------|
b|---------------------------------|
g|---55-55-55-5555-----------------|
d|---55-55-55-5555--7--9-----------|
a|---33-33-33-3333--7--9-----------|
E|----------------- 5--7-----------|

-----------------------------------------|
-----------------------------------------|
-----------------------------------------|
--33-333-3-55-555-5-77-777-7-99-999--9---|
--33-333-3-55-555-5-77-777-7-99-999--9---|
--11-111-1-33-333-3-55-555-5-77-777--7---|
[ Tab from: http://www.guitartabs.cc/tabs/p/pupil/dulo_ng_dila_tab.html ]
guitar 2
----------------------------------------------------|
----------------------------------------------------|
---55-555-5----------99999999s12.12.12.12.12.12.12--| x2
------------55-555-5-77777777s10.10.10.10.10.10.10--|
----------------------------------------------------|
----------------------------------------------------|


verse 2..

C, G, A.. x4

e|--------------------------------|
b|--------------------------------|
g|---55-55-55-5555----------------| x3
d|---55-55-55-5555--7-------------|
a|---33-33-33-3333--7-------------|
E|----------------- 5-------------|

e|--------------------------------|
b|--------------------------------|
g|---55-55-55-5555----------------|
d|---55-55-55-5555--7-7-7-7-------|
a|---33-33-33-3333--7-7-7-7-------|
E|----------------- 5-5-5-5-------|


ewan ko ba kung anong part tawag d2.. hahahaha

guitar 1

C strum x4

guitar 2 sa 3rd strum ng guitar 1 mo ito isasabay...

----------------|
----------------|
----------------|
-14-12-14-------|
----------15s2--|
----------------|

guitar 1
e|---------------------------------|
b|---------------------------------|
g|---55-55-55-5555-----------------|
d|---55-55-55-5555--7--9-----------|
a|---33-33-33-3333--7--9-----------|
E|----------------- 5--7-----------|

guitar 2
-------------------------------------------------------------------------------------|
-------------------------------------------------------------------------------------|
---12--12--12--12--12--12--12--12s14.14.14.14.14.14.14.14----------------------------| x2
-----10--10--10--10--10--10--10--------------------------14.14.14.14.14.14.14.14-----|
-------------------------------------------------------------------------------------|
-------------------------------------------------------------------------------------|

-------------------------------------------------------------------------------------|
-------------------------------------------------------------------------------------|
---12--12--12--12--12--12--12--12s14.14.14.14.14.14.14.14s16.16.16.16.16.16.16.16----|
-----10--10--10--10--10--10--10------------------------------------------------------|
-------------------------------------------------------------------------------------|
-------------------------------------------------------------------------------------|

------------------------------------------------|    -------------|
------------------------------------------------|    -------------|
--17--17--17--17--17--17--17--17s21-21-21-21-21-|END -17-16-------|
----15--15--15--15--15--15--15------------------|    --------17---|
------------------------------------------------|    -------------|
------------------------------------------------|    -------------|


END C, B, G

paki rate lang po.. thx!!

add niyo ko sa YM joshua_andres_23

friendster.. joshua_23@tuldok.com