Pupil - Different Worlds Chords & Tabs

 

Different Worlds Chords & Tabs

Pupil Chords & Tabs

Version: 3 Type: Tab

Different Worlds Tab

tabs by Archie Escasio

Intro

lead 2x mo uulitin tong dalawa

e |--14-12--------------------16------|
b |--------14-12-13-13--------15------|
g |---------------------------14------|
d |-----------------------------------|
a |-----------------------------------|
E |-----------------------------------|


e |--14-12----------------------------|
b |--------14-12-13-------------------|
g |------------------15---------------|
d |-----------------------------------|
a |-----------------------------------|
E |-----------------------------------|


Inrto
[ Tab from: http://www.guitartabs.cc/tabs/p/pupil/different_worlds_tab_ver_3.html ]
Bass 2x mo din ito uulitin

e |-----------------------------------|
b |-----------------------------------|
g |-----------------------------------|
d |-1-1--3-3--4-4--5------------------|


e |-----------------------------------|
b |-----------------------------------|
g |-----------------------------------|
d |-1-1--3-3--4-4--6------------------|

May banda poh ako ang coda seven hehe.,.
Archie Escasio - vox and rhythm guitar
Sharlie Enriquez- Lead guitar and vox
Robert Angusto- bass guitar and vox
Patrick Ramirez- drums

Banda poh ito sa malate catholic school