Punktured Lung - Instrumental Chords & Tabs

 

Instrumental Chords & Tabs

Punktured Lung Chords & Tabs

Version: 1 Type: Bass Tab 0 ratings
1 star 2 stars 3 stars 4 stars 5 stars
comments

Instrumental Bass Tab

-------------------------------------------------------------------------------
			 Instrumental - Punktured Lung
-------------------------------------------------------------------------------

By: KMPfab

Main Riff:
G|---------------------------------------------------------------------------|
D|-----------31--------------------------------------------------------------|
A|---------32----------------------------------------------------------------|
E|-33333333------------------------------------------------------------------|
[ Tab from: http://www.guitartabs.cc/tabs/p/punktured_lung/instrumental_btab.html ]
Chorus:
G|---------------------------------------------------------------------------|
D|---------------------------------------------------------------------------|
A|---------------------------------------------------------------------------|
E|-33333333-5555555-99999999-12~---------------------------------------------|


Drum Solo:
G|---------------------------------------------------------------------------|
D|---------------------------------------------------------------------------|
A|-9----3----5----9----3----5----9-------------------------------------------|
E|---------------------------------------------------------------------------|

Song Order:
(Silence while the guitar plays the main riff twice)
Main Riff (x3)
Chorus (x1)
Main Riff (x3)
Chorus (x1)
Main Riff (x4)
Chorus (x1)
Drum Solo (X1)
Main Riff (x3)
Chorus (x1)

For the guitar solo play the main riff four times instead of three and then
jump into the chorus with the guitar.

After the drum solo jump into the chorus.

===============================================================================
Comments