Punkreas - Sosta Chords & Tabs

 

Sosta Chords & Tabs

Punkreas Chords & Tabs

Version: 1 Type: Tab 0 ratings
1 star 2 stars 3 stars 4 stars 5 stars
comments

Sosta Tab

SOSTA  -Pelle- Punkreas 

strofa
 ---------------------------
 ---------------------------
 ------------------8-9-8-9--
 ------------7-7---8-9-8-9--
 ------------7-7---6-7-6-7--   X3
 ------------5-5------------
  

 ---------------------------
 ---------------------------
 ---------------------------
 ---5-5---8--7--------------
 ---5-5---8--7--------------
 ---3-3---6--5--------------


rit. 
 ---------------------------
 ---------------------------
 ---------------------------
 7-7---5-5---8-8--7-7-------
 7-7---5-5---8-8--7-7-------
 5-5---3-3---6-6--5-5-------



[ Tab from: http://www.guitartabs.cc/tabs/p/punkreas/sosta_tab.html ]
Solo:
-----------------------------------------------------
-----------------------------------------------------
---10-10-10--12--10-9----------12-12--12-14-12-------
----------------------10-----------------------12----
-----------------------------------------------------
-----------------------------------------------------

---------------------------------------------
---------------------------------------------
---7-5-7--8-7-5---7-5-7-8-7-5---7-5-7-8-7-5--   X2
---------------------------------------------
---------------------------------------------
---------------------------------------------
Gli accordi nel solo cambiano forse sono
-do  mi  sol  la-  con i power chord
Comments