Punkreas - Falsi Preoccupati Chords & Tabs

 

Falsi Preoccupati Chords & Tabs

Punkreas Chords & Tabs

Version: 3 Type: Tab 0 ratings
1 star 2 stars 3 stars 4 stars 5 stars
comments

Falsi Preoccupati Tab

   
  TITOLO: FALSI PREOCCUPATI
  ARTISTA: PUNKREAS
  ALBUM : PARANOIA E POTERE
  

  INTRO
  GUITAR A X2

  E------------------------------------------------------------------------]
  B--------------------------------------------------------12--------------]
  G--11/12-11-9-11-12-11/12-11-9-11-12-11/12-11-9-11-12-11----14-12-11-12--]
  D------------------------------------------------------------------------]
  A------------------------------------------------------------------------]
  E------------------------------------------------------------------------]
  

  INTRO
  GUITAR B X2

  E------------------------------------------------------------------------]
  B------------------------------------------------------------------------]
  G--9--7--5--4--7---------------------------------------------------------]
  D--9--7--5--4--7---------------------------------------------------------]
  A--7--5--3--2--5---------------------------------------------------------]
  E------------------------------------------------------------------------]


  VERSE GUITAR A&B X2

  E------------------------------------------------------------------------]
  B------------------------------------------------------------------------]
  G--9--7--5--4--7---------------------------------------------------------]
  D--9--7--5--4--7---------------------------------------------------------]
  A--7--5--3--2--5---------------------------------------------------------]
  E------------------------------------------------------------------------]


  INTRO A&B 
  VERSE A&B

  CHORUS A&B 
 
  E------------------------------------------------------------------------]
  B------------------------------------------------------------------------]
  G--5--7--4--9--7--5--7--9------------------------------------------------]
  D--5--7--4--9--7--5--7--9------------------------------------------------]
  A--3--5--2--7--5--3--5--7------------------------------------------------]
  E------------------------------------------------------------------------]

  INTRO A&B
  VERSE A&B
  CHORUS A&B


  BRIDGE A&B X4  TUTTO E'BENE....
[ Tab from: http://www.guitartabs.cc/tabs/p/punkreas/falsi_preoccupati_tab_ver_3.html ]
  E------------------------------------------------------------------------]
  B------------------------------------------------------------------------]
  G--9-9-9-9---9---9-9-9-9---9---5-5-5--7-7-7------------------------------]
  D--9-9-9-9---9---9-9-9-9---9---5-5-5--7-7-7------------------------------]
  A--7-7-7-7---7---7-7-7-7---7---3-3-3--5-5-5------------------------------]
  E--fast-pm-------fast-pm-------------------------------------------------]


  CHORUS A&B

  SOLO GUITAR A

  E-----------------------------------------------------------------------------------]
  B-----------15-------15-------15-13-12-------15-------------------------------------]
  G--11/12-11----12-11----12-11----------12-11----12-11-11-11-11-14-12-11-12----------]
  D-----------------------------------------------------------------------------------]
  A-----------------------------------------------------------------------------------]
  E-----------------------------------------------------------------------------------]


  E-----------------------------------------------------------------------------------]
  B-----------------------------------------------------------------------------------]
  G-----------------------------------------------------------------------------------]
  D--10-10-10-9-7----10-10-10-9-7----10-10-10-9-7-9-9-9-12-12-12----------------------]
  A---------------10--------------10--------------------------------------------------]
  E-----------------------------------------------------------------------------------]

  E-----------------------------------------------------------------------------------]
  B--/12v-12v-12v-12v-12v-/15v-15v-15v-15v-15v-/17v-17v-17v-17v-17v-/20v-20v-19-20-19-]
  G-----------------------------------------------------------------------------------]
  D-----------------------------------------------------------------------------------]
  A-----------------------------------------------------------------------------------]
  E-----------------------------------------------------------------------------------]

  E-----------------------------------------------------------------------------------]
  B--/12v-12v-12v-12v-12v-/17v-17v-17v-17v-17v-15v-15v-15v-15v-15v-12-12-12-10--------]
  G----------------------------------------------------------------------------12-9---]
  D-----------------------------------------------------------------------------------]
  A-----------------------------------------------------------------------------------]
  E-----------------------------------------------------------------------------------]


  GUITAR B X4
  
  E-----------------------------------------------------------------------------------]
  B-----------------------------------------------------------------------------------]
  G--9--7--5--4--7--------------------------------------------------------------------]
  D--9--7--5--4--7--------------------------------------------------------------------]
  A--7--5--3--2--5--------------------------------------------------------------------]
  E-----------------------------------------------------------------------------------]


  slideofcrash@virgilio.it     by tiziano pozzi
Comments