Punkreas - Chiapas Chords & Tabs

 

Chiapas Chords & Tabs

Punkreas Chords & Tabs

Version: 1 Type: Bass Tab 0 ratings
1 star 2 stars 3 stars 4 stars 5 stars
comments

Chiapas Bass Tab

#----------------------------------PLEASE NOTE---------------------------------#
#This file is the author's own work and represents their interpretation of the #
#song. You may only use this file for private study, scholarship, or research. #
#------------------------------------------------------------------------------#

Song: Chiapas
Artists: Punkreas
Album: Elettrodomestico
[ Tab from: http://www.guitartabs.cc/tabs/p/punkreas/chiapas_btab.html ]
Intro & Verse
G----------------------------------------------------------------------
D----------------------------------------------------------------------
A--5-5-5-5-5-5-5-5--2-2-2-2-2-2-2-2------------------------------------
E------------------------------------3-3-3-3-3-3-3-3--5-5-5-5-5-5-5-5--

Pre-Chorus &Interlude
G--------------------------------------
D--------------------------------------
A--5-5-5-5--2-2-2-2--------------------
E--------------------3-3-3-3--5-5-5-5--

Chorus
G------------------------------------- x3 -------------------------------------
D-------------------------------------	  -------------------------------------
A--------------------5-5-5-5-5-5-5-5--	  -----------5-5-5-5-------------------
E--3-3-3-3--5-5-5-5-------------------	  --3-3-3-3-----------5-5-5-5-5-5-5-5--

e-mail: mc_call@email.it for questions.


Comments