Punkass - Broken Chords & Tabs

 

Broken Chords & Tabs

Punkass Chords & Tabs

Version: 1 Type: Bass Tab 0 ratings
1 star 2 stars 3 stars 4 stars 5 stars
comments

Broken Bass Tab

- Web site: https://www.facebook.com/bandapunkass
- Punkass - Broken
- Tabbed by: Pacu, bassist from a brazilian punk rock band called Punkass.
- This is a song by Punkass (my band). If you wanna hear this song go to youtube, 
type "punkass broken" and you'll find out.

___________________
Intro
G|---------------------------------|----|
D|---------------------------------|----|
A|---------------2h4-5-55555-4-2-4-|-4x-|
E|-22-0202-22-2h4------------------|----|

Verse [2x]
G|------------------------------------|----|
D|------------------------------------|----|
A|-------------------5-555555-5-4-2-4-|-1x-|
E|-2-222222-2-222222------------------|----|

G|------------------------------------|----|
D|------------------------------------|----|
A|-------------------7-777777-7-5-4-5-|-1x-|
E|-2-222222-2-222222------------------|----|

Chorus
G|------------------------------------------------------------|----|
D|----------4-42----------7-754-------------------------------|----|
A|-2-222222-----45-555555------0-000000-4-457--------7-777545-|-2x-|
E|-------------------------------------------0-000000---------|----|

Bridge I
G|------------------------------------|----|
D|------------------------------------|----|
A|----------------------5-555555-4-24-|-2x-|
E|-2-222222----2-222222---------------|----|
[ Tab from: http://www.guitartabs.cc/tabs/p/punkass/broken_btab.html ]
Verse [2x]
G|------------------------------------|----|
D|------------------------------------|----|
A|-------------------5-555555-5-4-2-4-|-1x-|
E|-2-222222-2-222222------------------|----|

G|------------------------------------|----|
D|------------------------------------|----|
A|-------------------7-777777-7-5-4-5-|-1x-|
E|-2-222222-2-222222------------------|----|

Chorus
G|------------------------------------------------------------|----|
D|----------4-42----------7-754-------------------------------|----|
A|-2-222222-----45-555555------0-000000-4-457--------7-777545-|-2x-|
E|-------------------------------------------0-000000---------|----|

Bridge II
G|------------------------------------|----|
D|------------------------------------|----|
A|----------------------5-555555-4-24-|-1x-|
E|-2-222222----2-222222---------------|----|

G|-------------------------------------|----|
D|-------------------------------------|----|
A|-------------------55555555-75454----|-1x-|
E|-22222222-44445754---------------754-|----|

Bridge III
G|-------------------------------------|----|
D|-------------------------------------|----|
A|-------------------55555555-75454----|-2x-|
E|-22222222-44445754---------------754-|----|

G|-------------------------------------|----|
D|-44444444-66667976-77777777-97676----|----|
A|---------------------------------976-|-2x-|
E|-------------------------------------|----|

Ending
G|---------|----|
D|---------|----|
A|---------|-1x-|
E|-22-0202-|----|
Comments