Pungent Stench - Happy Re-birthday Chords & Tabs

 

Happy Re-birthday Chords & Tabs

Pungent Stench Chords & Tabs

Version: 1 Type: Tab 0 ratings
1 star 2 stars 3 stars 4 stars 5 stars
comments

Happy Re-birthday Tab

   
HAPPY RE-BIRTHDAY
Band: Pungent Stench
Album: Been Caught Buttering

Transcribed by: Jay Orosa (shredd_32@hotmail.com)

TUNING: D (one whole step down)

RIFF A 
e:------------------------|------------------------|
B:------------------------|------------------------|
G:------------------------|------------------------| 
D:--4----------4-3--------|--4----------4-3--------| GTR 1
A:--2----------2-1--------|--2----------2-1--------|
E:---0000002222---222222--|---0000002222---222222--|
|    ..........   ......  |   ..........   ......  |
e:------------------------|------------------------|
B:------------------------|------------------------|
G:------------------------|------------------------|
D:--4---------------------|--4----------4-3--------| GTR 2
A:--2---------------------|--2------4---2-1---4----|
E:------------------------|---------2---------2----|

RIFF B
e:--------------------------------|
B:--------------------------------|
G:--------------------------------|
D:--------------------------------| 2x
A:--------------8--------------7--|
E:--0-0-0-0-000-6--0-0-0-0-000-5--|
    . . . . ...    . . . . ...

RIFF C                          
e:--------------------------------|
B:--------------------------------|
G:--------------------------------|
D:--------------------------------|
A:--222222--------22221111--------|
E:--------00002222--------222222--|
    ............................
[ Tab from: http://www.guitartabs.cc/tabs/p/pungent_stench/happy_re_birthday_tab.html ]
RIFF D                      1,2,3,4                               5
e:---------------------------------|-------------------------------|
B:---------------------------------|-------------------------------|
G:---------------------------------|-------------------------------|
D:---------------------------------|-------------------------------|
A:--7~---6~---4---5---4---5---4----|--7~---6~-------5----4---------|
E:-----0----0-2-0-3-0-2-0-3-0-2-0--|-----0-----000003--0-2--00000--|
       .    .   .   .   .   .   .        .     .....   .    .....

RIFF E
e:--------------------------------------|
B:--------------------------------------|
G:--------------------------------------|
D:--------------------------------3--2--|
A:--------------------------------1--0--|
E:--3h4-00000-3h4-00000-3h4-00000-------|
        .....     .....     .....    

RIFF F 
e:-------------------------------|
B:-------------------------------|
G:-------------------------------|
D:-------------------------------|
A:---------4~--------------------|
E:--0--5-6-----6-5-4~--0-3-5-3~--|

RIFF G
e:-----------------------------------|
B:-----------------------------------|
G:-----------------------------------|
D:------------------------4~---------|
A:--4h6-6-6-4h6-6-6-4h6-6-----6-4-1--|
E:-----------------------------------|

RIFF H
e:------------------------------------|
B:------------------------------------|
G:------------------------------------|
D:------------------------------------|
A:------------------1-4-6-6br--4------|
E:--4h6-6-6-4h6-6-6--------------6-4--|

RIFF I
e:-----------|
B:-----------|
G:-----------|
D:-----------|
A:--------2--|
E:--0-0-0-0--|
    . . . 

Song Structure:
RIFF A 2x
RIFF B 1x
RIFF C 2x
RIFF B 1x
END WITH E5 chord
RIFF D
RIFF E 4x
RIFF D
RIFF F 10x
END WITH E5 chord
RIFF D
RIFF E 4x
RIFF D
RIFF G 4x
RIFF H 4x
RIFF G 4x
END WITH D# chord
RIFF D 
RIFF E 4x
RIFF D
RIFF I
END

For questions, comments, suggestions, corrections, etc., E-mail me at shredd_32@hotmail.com
Comments