Punchline - Wars Will Always Happen Chords & Tabs

 

Wars Will Always Happen Chords & Tabs

Punchline Chords & Tabs

Version: 1 Type: Tab

Wars Will Always Happen Tab

   
Wars Will Always Happen
by Punchline

b bend
* harmonic

e]--------------------------------------------------------------|
B]--------8-10-8-7-5-3-7----------8-6----------------8-6--------|
G]-8--8-10-------------------7-8-10----8-7------8-10-----7------|
D]---------------------------------------8----------------------|
A]--------------------------------------------------------------|
E]--------------------------------------------------------------|
[ Tab from: http://www.guitartabs.cc/tabs/p/punchline/wars_will_always_happen_tab.html ]
e]------------------------------------------------------------|
B]-----------8-6------------8-7*------------8-10------8b------|
G]------8-10-----7-----8-10------7-----8-10------7-8--8b------|
D]------------------------------------------------------------|
A]------------------------------------------------------------|
E]------------------------------------------------------------|

Probably not totally right, it may even be totally wrong, who knows. i just wanted to 
it out cause I like this song and there's no tabs.