Punchline - Here Goes Nothing Chords & Tabs

 

Here Goes Nothing Chords & Tabs

Punchline Chords & Tabs

Version: 1 Type: Bass Tab 0 ratings
1 star 2 stars 3 stars 4 stars 5 stars
comments

Here Goes Nothing Bass Tab

----------------------Here Goes Nothing:Punchline---------------------------
Hi! my name is Bryan G. u might remeber me by such classic tabs as Here goes Nothing
guitar tabbed, and In my eyes by rufio. in this tab we look into the bass notes of Here
Goes Nohing by Punchline.enjoi*

Intro

im not sure if tats right but it works 4 me.
G|---------------------------------------------------------|
D|---------------------------------------------------------|
A|3~5~7~-5~7~9~-10-10-10-9--5~-3-7-10-3-5-7-5-7-9--10~--10~|
E|---------------------------------------------------------|
[ Tab from: http://www.guitartabs.cc/tabs/p/punchline/here_goes_nothing_btab.html ]
Verse
G|----------------------|
D|----------------------|
A|-----5-5-5-2-2-2-3-3-3|
E|3-3-3-----------------|
  
Pre-chorus (find exact strumming off the song)
G|-------|
D|-------|
A|-0~2~3~|
E|3~-----|

Chorus      (find exact strumming off the song)
G|------|
D|------|
A|-2-3--|
E|3-0---|

riff
G|-----------------------------------|
D|-----------------------------------|
A|------0-0-2-2-2-5-5-7-7-7-2-2-5-5-5|
E|3-3-3------------------------------|

Repeat Verse
Repeat chorus

Bridge
G|--------|
D|--------|
A|--5-7-3-|
E|3-------|
repeat pre-chorus
wait for 2nd alf of guitar playing the chorus then join in...

Ending(repeat riff)
Comments