Pulse Ultra - Build Your Cages Chords & Tabs

 

Build Your Cages Chords & Tabs

Pulse Ultra Chords & Tabs

Version: 2 Type: Tab 0 ratings
1 star 2 stars 3 stars 4 stars 5 stars
comments

Build Your Cages Tab

Pulse Ultra - Build your cages intro

tuning 1 down DGCFAD (654321)

intro:
D|------------------------|
A|--(0)---------0----0----|
F|--------------4----4----|  4 times then distortion
C|---9--5--5--5---5-5-----|
G|-7----x--x--3---3-3-----|
D|-0----3--3--------------|

(0) - it's not harmonic, u can play this instead 9 note on C string


verse:  

  pm...
D|------------------------------------------
A|------------------------------------------
F|------------------------------------------
C|-2-2--------------------------------------
G|-2-2-2p3-5-3-5h7--(many times)------------
D|-0-0--------------------------------------

pre chorus:
  without pm
D|------------------------------------------
A|------------------------------------------
F|------------------------------------------
C|-2-2--------------2-2-----7---------------
G|-2-2-2p3-5-3-5h7--2-2-2p3-5---------------
D|-0-0--------------0-0---------------------


chorus:
the same as intro but hard distorted:)

D|------------------------|
A|--(0)---------0----0----|
F|--------------4----4----|  8 times
C|---9--5--5--5---5-5-----|
G|-7----x--x--3---3-3-----|
D|-0----3--3--------------|

pre-verse
little variation about verse chords - i'm not sure about this!

D|------------------------------------------------------------------------------
A|------------------------------------------------------------------------------
F|------------------------------------------------------------------------------
C|-2-2-----5---9------------------------------------2-2-----5-5-x---------------
G|-2-2-2h3-3-x-7---------3 times--last time it's : -2-2-2h3-3-3-x---------------
D|-0-0----------------------------------------------0-0-------------------------

second verse is the same as 1st one

second pre chorus is different... i don't know how he plays it... im sure it's
similar to 1st pre verse, but im not sure in 100 % how to transcribe this:) tries
it at home, and give me some help...

break donw:
as u know - the same as intro

chorus - as usuall
[ Tab from: http://www.guitartabs.cc/tabs/p/pulse_ultra/build_your_cages_tab_ver_2.html ]
bridge:
D|------------------------------------------
A|------------------------------------------
F|------------------------------------------
C|-2-2--------------2-2---------------------
G|-2-2-2p3-5-3-5h7--2-2----(6 times)--------
D|-0-0--------------0-0---------------------

last time it's something like this:

D|--------------------------------------------
A|--------------------------------------------
F|------------------5-------------------------
C|-2-2--------------5---2---------------------
G|-2-2-2p3-5-3-5h7--3---2----(6 times)--------
D|-0-0------------------0---------------------

last chorus:
"sacrifice everything you know...you love..."

D|------------------------|
A|--(0)---------0----0----|
F|--------------4----4----| 
C|---9--5--5--5---5-5-----|
G|-7----x--x--3---3-3-----|
D|-0----3--3--------------|

D|--------------------------|
A|--(0)---------0-----------|
F|--------------4--9-12-11--|
C|---9--5--5--5----x-x--x---|                    all is one part of ending chorus
G|-7----x--x--3----7-10-9---|
D|-0----3--3----------------|

D|------------------------|
A|--(0)---------0----0----|
F|--------------4----4----| 
C|---9--5--5--5---5-5-----|
G|-7----x--x--3---3-3-----|
D|-0----3--3--------------|

D|------------------------|
A|--(0)---------0----0----|
F|--------------4----4----| 
C|---9--5--5--5---5-5-----|
G|-7----x--x--3---3-3-----|
D|-0----3--3--------------|


there's small variation in second part played on octaves 7-10-9. similar is
played in 6th part but on third note on G string and 5th on C - u'll get it. four
last parts are played with small palm m.   

D|------------------------|
A|--(0)---------0---------|
F|--------------4---------|  4 times
C|---9--5--5--5---x-x-x---|
G|-7----x--x--3---x-x-x---|
D|-0----3--3------x-x-x---|

and outro

i'm not sure how to play that, but probably it's intro variation... maybe played
only on G and D strings? something like this :

D|------------------------|
A|------------------------|
F|------------------------| 
C|-------------5----5--5--|   clean?
G|-7----------3---3--3----|
D|-0----3--3--------------|

if u know how to play tha, pleas tell me:) 

i know that this is not correct, i guess that many notes are wrong:) this is not
easy song:) pulse ultra rocks! this is my first official tab, so don't be cruel:)
it can be used without me permission and published somwhere else for your own
good, but please don't delete this paragraph at the bottom:

i dedicate this tab to my first real love - Martusia <3 u know i love u:)
keep on yelling - dave  
d9@wp.pl
Comments