Pulp Fiction - Bring Out The Gimp Chords & Tabs

 

Bring Out The Gimp Chords & Tabs

Pulp Fiction Chords & Tabs

Version: 1 Type: Tab 0 ratings
1 star 2 stars 3 stars 4 stars 5 stars
comments

Bring Out The Gimp Tab

   
Here is the tab for Comanche - Played while the bring out the gimp.
It was a bitch to tab so I hope you enjoy it.
Tabbed by Wardy.
Comments, Corrections to wilburtf@yahoo.com

Dm - X X X 7 6 5
Fm - X X X 9 10 11
Gm - X X X 10 11 12
            Intro - Sax arranged for guitar.
                          Dm                          Fm
e||---------------------------|---------------------------|
B||---------------------------|---------------------------|
G||---------------------------|---------------------------|
D||-0-0-0-0-0--0-0-0-0-0--0---|-3-3-3-3-3--3-3-3-3-3--3---|
A||---------------------------|---------------------------|
E||---------------------------|---------------------------|

                          Dm                          Dm
e||---------------------------|---------------------------|
B||---------------------------|---------------------------|
G||---------------------------|-5-5-5-5-5--5-5-5-5-5--5---|
D||-7-7-7-7-7--7-7-7-7-7--7---|---------------------------|
A||---------------------------|---------------------------|
E||---------------------------|---------------------------|

    Dm                          Gm
e||---------------------------|---------------------------|
B||---------------------------|---------------------------|
G||--------5------------------|---------------------------|
D||-0-7~~~---7p5-7~~~---------|-5~~~-5s4s3-0--------------|
A||---------------------------|---------------------------|
E||---------------------------|---------------------------|

    Dm                          Gm
e||---------------------------|---------------------------|
B||---------------------------|---------------------------|
G||--------5------------------|---------------------------|
D||-0-7~~~---7p5-7~~~---------|-5~~~-5s4s3-0--------------|
A||---------------------------|---------------------------|
E||---------------------------|---------------------------|

    Dm                          Gm
e||---------------------------|---------------------------|
B||---------------------------|---------------------------|
G||---------------------------|---------------------------|
D||---------------------------|---------------------------|
A||---------------------------|---------------------------|
E||---------------------------|---------------------------|

    Dm                          Gm
e||---------------------------|---------------------------|
B||---------------------------|---------------------------|
G||---------------------------|---------------------------|
D||---------------------------|---------------------------|
A||---------------------------|---------------------------|
E||---------------------------|---------------------------|

                          Dm                          Fm
e||---------------------------|---------------------------|
B||---------------------------|---------------------------|
G||---------------------------|---------------------------|
D||-0-0-0-0-0--0-0-0-0-0--0---|-3-3-3-3-3--3-3-3-3-3--3---|
A||---------------------------|---------------------------|
E||---------------------------|---------------------------|

                          Dm                          Dm
e||---------------------------|---------------------------|
B||---------------------------|---------------------------|
G||---------------------------|-5-5-5-5-5--5-5-5-5-5--5---|
D||-7-7-7-7-7--7-7-7-7-7--7---|---------------------------|
A||---------------------------|---------------------------|
E||---------------------------|---------------------------|
[ Tab from: http://www.guitartabs.cc/tabs/p/pulp_fiction/bring_out_the_gimp_tab.html ]
    Dm                          Gm
e||---------------------------|---------------------------|
B||---------------------------|---------------------------|
G||--------5------------------|---------------------------|
D||-0-7~~~---7p5-7~~~---------|-5~~~-5s4s3-0--------------|
A||---------------------------|---------------------------|
E||---------------------------|---------------------------|

    Dm                          Gm
e||---------------------------|---------------------------|
B||---------------------------|---------------------------|
G||--------5------------------|---------------------------|
D||-0-7~~~---7p5-7~~~---------|-5~~~-5s4s3-0--------------|
A||---------------------------|---------------------------|
E||---------------------------|---------------------------|


              Solo - Sax arranged for guitar

e||---------------------------|---------------------7-8-9-|
B||---6-8-8~~-8~~-8~~-8~~b9~~-|-6-------6---6-8---8-------|
G||-7-------------------------|---7-5-7---7---------------|
D||---------------------------|---------------------------|
A||---------------------------|---------------------------|
E||---------------------------|---------------------------|


e||-8-7-8-7-------------------|--------------10~~-10~~-10-|
B||---------8-6-8---6-8-9~~---|-9~~-8-6-------------------|
G||---------------------------|---------5-7---------------|
D||---------------------------|---------------------------|
A||---------------------------|---------------------------|
E||---------------------------|---------------------------|


e||-10--10--10--10--10------10|----10--10-10--------------|
B||---------------------------|--------------9-8-6-8---6--|
G||---------------------------|----------------------7---8|
D||---------------------12----|-12------------------------|
A||---------------------------|---------------------------|
E||---------------------------|---------------------------|


e||---------------------------|---------------------------|
B||-8-8-8-8-8-8-8-8b9r8-6-----|-------6---6-8~~-8~~-8~~---|
G||-----------------------7-5-|-7---7---7-----------------|
D||---------------------------|---------------------------|
A||---------------------------|---------------------------|
E||---------------------------|---------------------------|

    Dm                          Gm
e||---------------------------|---------------------------|
B||---------------------------|---------------------------|
G||--------5------------------|---------------------------|
D||-0-7~~~---7p5-7~~~---------|-5~~~-5s4s3-0--------------|
A||---------------------------|---------------------------|
E||---------------------------|---------------------------|

    Dm                          Gm
e||---------------------------|---------------------------|
B||---------------------------|---------------------------|
G||--------5------------------|---------------------------|
D||-0-7~~~---7p5-7~~~---------|-5~~~-5s4s3-0--------------|
A||---------------------------|---------------------------|
E||---------------------------|---------------------------|

                          Dm                          Fm
e||---------------------------|---------------------------|
B||---------------------------|---------------------------|
G||---------------------------|---------------------------|
D||-0-0-0-0-0--0-0-0-0-0--0---|-3-3-3-3-3--3-3-3-3-3--3---|
A||---------------------------|---------------------------|
E||---------------------------|---------------------------|

                          Dm                          Dm
e||---------------------------|---------------------------|
B||---------------------------|---------------------------|
G||---------------------------|-5-5-5-5-5--5-5-5-5-5--5\--|
D||-7-7-7-7-7--7-7-7-7-7--7---|---------------------------|
A||---------------------------|---------------------------|
E||---------------------------|---------------------------|
Comments