Pulp - Have You Seen Her Lately Chords & Tabs

 

Have You Seen Her Lately Chords & Tabs

Pulp Chords & Tabs

Version: 1 Type: Bass Tab 0 ratings
1 star 2 stars 3 stars 4 stars 5 stars
comments

Have You Seen Her Lately Bass Tab

   
**********************HAVE YOU SEEN HER LATELY?**********************

You've gotta love the bass line in this-thank you Mr. Mackay (M'Kay!)

*INTRO*


G-------------------------
D-------------------------
A--3-3-0---0---3-3-0---0--
E--------3-----------3----


*VERSE 1*

See chord file for lyrics!

       C                   E
G-------------------------------------------------
D-------------------------------------------------
A--3-3-0---0---3-3-0---0----3-3-0---0---3-3---0---
E--------3-----------3------------3---------3-----

       F        G
G-----------------0----
D--3-2-0-----3-2-------
A----------------------
E----------------------

Repeat whole section.

*CHORUS 1*

[ Tab from: http://www.guitartabs.cc/tabs/p/pulp/have_you_seen_her_lately_btab.html ]
      C             E                 F       Fm
G------------------------------------------------------
D-------------------2-2-2-2-2-2-2-2---3-3-3-3-3-3-3-3--
A-3-3-3-3-3-3-3-3--------------------------------------
E------------------------------------------------------

      G       C
G------------------------------------------------------
D------------------------------------------------------
A-------------3-3-3-3-3-3-3-3--------------------------
E--3-3-3-3-3-------------------------------------------

Repeat whole sequence.

All verses (including middle bit) are the same as are all choruses.

*END*

***********************************************************************
TRANSCRIBED BY
The Archetypal Loom.
Comments