Pulp - Do You Remember The First Time? Chords & Tabs

 

Do You Remember The First Time? Chords & Tabs

Pulp Chords & Tabs

Version: 1 Type: Tab 0 ratings
1 star 2 stars 3 stars 4 stars 5 stars
comments

Do You Remember The First Time? Tab

   
#----------------------------------PLEASE NOTE--------------------------------#
#This file is the author's own work and represents their interpretation of the#
#song. You may only use this file for private study, scholarship, or research.#
#-----------------------------------------------------------------------------#

Date: Thu, 07 May 1998 09:29:34 +0200
From: "David Fong" 
Subject:  p/pulp/do_you_remember_the_first_time.tab

Do You Remember The First Time?
(Pulp)

(transcribed by Dave Fong - david.fong@eskom.co.za
Comments and suggestions or just conversation are always welcome)

G  Am  C    (x2)
(with slow buildup...)

         

   G                                  
e:--------------------------------------------|
b:-12-----------12-----12-----12-----12-------|
g:------12--------12-----12-----12-----12-----|
D:-----------12-----12-----12-----12-----12---|
A:--------------------------------------------|
E:--------------------------------------------|
                            Do you remember the
 
   Am                                  
e:--------------------------------------------|
b:--------------------------------------------|
g:----------12/14-12----------12/14-12--------|
D:----12/14-------------12/14-----------------|
A:-12----------------12-----------------------|
E:--------------------------------------------|
   first time             I can't remember a 

   C                                  
e:--------------------------------------------|
b:--------------------------------------------|
g:----------12/14-12----------12/14-12--------|
D:----12/14-------------12/14-----------------|
A:-15----------------15-----------------------|
E:--------------------------------------------|
   worse time            But you know that we've 
[ Tab from: http://www.guitartabs.cc/tabs/p/pulp/do_you_remember_the_first_time_tab.html ]
   C                                  
e:--------------------------------------------|
b:--------------------------------------------|
g:----------15/17-15----------15/17-15--------|
D:----15/17-------------15/17-----------------|
A:-15----------------15-----------------------|
E:--------------------------------------------|
   changed so much since then     Oh yeah, we've 

   G                                  
e:--------------------------------------------|
b:-12-----------12-----12-----12-----12-------|
g:------12--------12-----12-----12-----12-----|
D:-----------12-----12-----12-----12-----12---|
A:--------------------------------------------|
E:--------------------------------------------|
   grown                 Now I don't care what you're 

   Am                                  
e:--------------------------------------------|
b:--------------------------------------------|
g:----------12/14-12----------12/14-12--------|
D:----12/14-------------12/14-----------------|
A:-12----------------12-----------------------|
E:--------------------------------------------|
   doing                 No, I don't care if you 

   C                                  
e:--------------------------------------------|
b:--------------------------------------------|
g:----------12/14-12----------12/14-12--------|
D:----12/14-------------12/14-----------------|
A:-15----------------15-----------------------|
E:--------------------------------------------|
   screw him             Just as long as you 

   C                                  
e:--------------------------------------------|
b:--------------------------------------------|
g:----------15/17-15----------15/17-15--------|
D:----15/17-------------15/17-----------------|
A:-15----------------15-----------------------|
E:--------------------------------------------|
   save a piece for me, oh yeah ...

          


(From here it goes into a quiet plam muted sort of bit with the same
chord 
pro, then back to the chorus...)

(The lead line at the end is a bit tricky, and I haven't managed to
wort it 
out yet ... mail me if you know how!)
Comments