Pulp - Born To Cry (intro-solo) Chords & Tabs

 

Born To Cry (intro-solo) Chords & Tabs

Pulp Chords & Tabs

Version: 1 Type: Tab 0 ratings
1 star 2 stars 3 stars 4 stars 5 stars
comments

Born To Cry (intro-solo) Tab

   
#----------------------------------PLEASE NOTE---------------------------------#
#This file is the author's own work and represents their interpretation of the #
#song. You may only use this file for private study, scholarship, or research. #
#------------------------------------------------------------------------------#

Pulp
Born To Cry
(Jarvis Cocker, Nick Banks, Candida Doyle, Steve Mackey, Mark Webber, Richard Hawley)

Intro
(w/tremelo)
 E 
-0-----------0----------------|
-0-----------0----------------|
-1---1-1-----1---1-1--1---1---|
-2--------4--2--------2h4-----|
-2-----------2----------------|
-0-----------0--------------0-|

[ Tab from: http://www.guitartabs.cc/tabs/p/pulp/born_to_cry_intro_solo_tab.html ]
Solo
             E                 A                 B                 E
----------------------------------------------------------------------|
-12--16~--------------------------------------------------------------|
-----------16-16~----14-14~--13---------8-8~---8-11-8~---------8------|
--------------------------------11~--------------------(4-4)------9-9-|
----------------------------------------------------------------------|
----------------------------------------------------------------------|

E               A               B               E
E-16--14--12--19--16--14--12--14--16--14--12--14--12~-
b-----------------------------------------------------

  E               A               B               E
E-16--14--12--14--17--16--12--14--16--14--12--14--22--
b-----------------------------------------------------



 That's It ...
Comments