Pulp - Babies (intro) Chords & Tabs

 

Babies (intro) Chords & Tabs

Pulp Chords & Tabs

Version: 1 Type: Chords 0 ratings
1 star 2 stars 3 stars 4 stars 5 stars
comments

Babies (intro) Chords

#----------------------------------PLEASE NOTE---------------------------------#
#This file is the author's own work and represents their interpretation of the #
#song. You may only use this file for private study, scholarship, or research. #
#------------------------------------------------------------------------------##
From: Colin Watt 

PULP: "BABIES" (intro)


If you can understand Jarvis you should be able to understand this tab.

Intro:

This is what the top two strings of one guitarist do 
through the intro.
[ Tab from: http://www.guitartabs.cc/tabs/p/pulp/babies_intro_crd.html ]
E-------9---------------9--etc-------7----7--etc-----|  
B-10-10---10-10---10-10----------8-8---88---------10-|   
G----------------------------------------------------|
D----------------------------------------------------|
A----------------------------------------------------|
E---------3-4-5-5-4-3-3-4-5--------------------------| 

(Then the bassist comes in doing something like with a 
certain rhythm which continues through most of the song)

G-------------------------------|
D-------------------------------|
A-------------------------------|
E-----5-5-5-5-5-5-3-3-3-3-3-3---|

Then the guitar comes in properly:

E----------------------------------------------------|
B----------------------------------------------------|
G----------------------------------------------------|
D----------------------------------------------------|
A--0-3-5-0-3-5-0------4---4--------------------------|
E-----------------5-5---5---5-5-5-5-4-3-3-5-3-5-33 etc
Grateful for any Pulp info.
Comments