Pulley - Working Class Whore Chords & Tabs

 

Working Class Whore Chords & Tabs

Pulley Chords & Tabs

Version: 1 Type: Tab 0 ratings
1 star 2 stars 3 stars 4 stars 5 stars
comments

Working Class Whore Tab

   
WORKING CLASS WHORE - Pulley


By: the_davester (nirvanasongs@yahoo.com)

Drop-D Tuned (Low to high: DADGBE)

DROPPED-D CHORDS:
   A5 E5 Do5 C#5 D5
e |------------------|
B |------------------|
G |----------6---7---|
D |-7--2--0--6---7---|
A |-7--2--0--4---5---|
E |-7--2--0----------|

INTRO (play that 16th fret with your pinkie):
Guitar 1:       
e |-------------------------------------------------|
B |-------------------------------------------------|
G |-14-14-14-14-16-14-14-14-9-9-9--11-11-11-7-7-7-7-|
D |-14-14-14-14-14-14-14-14-9-9-9--11-11-11-7-7-7-7-|
A |-12-12-12-12-12-12-12-12-7-7-7---9--9--9-5-5-5-5-|
E |-------------------------------------------------|

Guitar 2 (enter after Guitar 1 plays once alone):
   A5r                     E5r               D5or
   A5r                     C#5               D5r
[ Tab from: http://www.guitartabs.cc/tabs/p/pulley/working_class_whore_tab.html ]
VERSE:
  A5            E5      Do5       A5            E5      D5   x3
|-------------------------------|-------------------------------|
|-------------------------------|-------------------------------|
|-------------------------------|-----------------------7-7-7-7-|
|-7-7-7-7-7-7-7-2-2-2-2-0-0-0-0-|-7-7-7-7-7-7-7-2-2-2-2-7-7-7-7-|
|-7-7-7-7-7-7-7-2-2-2-2-0-0-0-0-|-7-7-7-7-7-7-7-2-2-2-2-5-5-5-5-|
|-7-7-7-7-7-7-7-2-2-2-2-0-0-0-0-|-7-7-7-7-7-7-7-2-2-2-2-0-0-0-0-|
I can feel the pressure...

CHORUS
|-------------------------------|-------------------------------------|
|-------------------------------|-------------------------------------|
|-9-9-9-9-9-9-9-7-7-7-7-7-7-7-7-|-------------------------------------|
|-9-9-9-9-9-9-9-7-7-7-7-7-7-7-7-|-7-7-7-7-7-7-7-7-2-2-2-2-2-2-2-2--0--|
|-7-7-7-7-7-7-7-5-5-5-5-5-5-5-5-|-7-7-7-7-7-7-7-7-2-2-2-2-2-2-2-2--0--|
|-------------------------------|-7-7-7-7-7-7-7-7-2-2-2-2-2-2-2-2--0--|
  You think you got me...         I work for a living...
  
BRIDGE:
|-----------------------------------------------|
|-----------------------------------------------|
|-------------------------------------------7-6-|
|-7-7-7-7-7-7-7-2-2-2-2-2-2-2-2-7-7-7-7-7-7-7-6-|
|-7-7-7-7-7-7-7-2-2-2-2-2-2-2-2-7-7-7-7-7-7-5-4-|
|-7-7-7-7-7-7-7-2-2-2-2-2-2-2-2-7-7-7-7-7-7-----|
  Day in, day out...

|-----------------------------------------------|
|-----------------------------------------------|
|-----------------------------------------------|
|-7-7-7-7-7-7-7-2-2-2-2-2-2-2-2-0-0-0-0-0-0-0-0-|
|-7-7-7-7-7-7-7-2-2-2-2-2-2-2-2-0-0-0-0-0-0-0-0-|
|-7-7-7-7-7-7-7-2-2-2-2-2-2-2-2-0-0-0-0-0-0-0-0-|
Comments