Pulley - Silver Tongue Devil Chords & Tabs

 

Silver Tongue Devil Chords & Tabs

Pulley Chords & Tabs

Version: 1 Type: Tab 0 ratings
1 star 2 stars 3 stars 4 stars 5 stars
comments

Silver Tongue Devil Tab

SILVER TONGUE DEVIL - Pulley


Brian Nelson (ibanez117@hotmail.com)

*standard low e - high e tuning

Intro (guitar 1)
---------------------------------------------------------
---------------------------------------------------------
-7-777-7-77--7-777-7-77--7-77-77-7-77-77-7-77-77-7-77-77-
---------------------------------------------------------
-5-555-5-55--5-555-5-55--5-55-55-5-55-55-5-55-55-5-55-55-
---------------------------------------------------------

Intro (guitar 2)
---------------------------------------------------------
---------------------------------------------------------
-7-777-7-77--7-777-7-77--7-77-77-------------------------
-7-777-7-77--7-777-7-77--7-77-77-7-77-77-5-55-55-5-55-55-
-5-555-5-55--5-555-5-55--5-55-55-7-77-77-5-55-55-5-55-55-
---------------------------------5-55-55-3-33-33-3-33-33-

Verse
-----------------------------------------------------------------
-----------------------------------------------------------------
-7-7-777-7-7-777-----------------7-7-777-------------------------
-7-7-777-7-7-777-7-7-777-7-7-777-7-7-777-7-7-777-5-5-555-5-5-555-
-5-5-555-5-5-555-7-7-777-7-7-777-5-5-555-7-7-777-5-5-555-5-5-555-
-----------------5-5-555-5-5-555---------5-5-555-3-3-333-3-3-333-
Pm>>>>>>>>>>>>>>>>>>>>>>>>>>>>>>>>>>>>>>>>>>>>>>>>>>>>>>>>>>>>>>>
[ Tab from: http://www.guitartabs.cc/tabs/p/pulley/silver_tongue_devil_tab.html ]
Chorus "he said he saw"
----------------------------
----------------------------
-7-7-7777------------------- play this 2x with Pm then two without
-7-7-7777-7-7-7777-5-5-5-55-
-5-5-5555-7-7-7777-5-5-5-55-
----------5-5-5555-3-3-3-33-
     Pm>>     Pm>>

Main riff
--------------------------------------------------------------------
--------------------------------------------------------------------
-12-12-12-12--11-11--7-7-7-7--9--9--7-77-77-6-66-66-----------------
----------------------------------------------------7-77-77-9-99-99-
-10-10-10-10---9--9--5-5-5-5--7--7--5-55-55-4-44-44-----------------
----------------------------------------------------5-55-55-7-77-77-

Bridge "fearless and fearfull"
----------------------------------------------------------------
----------------------------------------------------------------
-------------------------------------7-7-7777-7-7-7777-7-7-7-77-
-3-33-333-3-33-333-7-77-777-7-77-777-7-7-7777-7-7-7777-7-7-7-77- x2
-3-33-333-3-33-333-7-77-777-7-77-777-5-5-5555-5-5-5555-5-5-5-55-
-1-11-111-1-11-111-5-55-555-5-55-555----------------------------
                                         Pm>>     Pm>>

Interlude "i thought i heard him say"
-------------------------------------------------------------------------
-------------------------------------------------------------------------
---------------------------------7-77-77-7-77-77-------------------------
-3-33-33-3-33-33-7-77-77-7-77-77-7-77-77-7-77-77-7-77-77-7-77-77-3-33-33-
-3-33-33-3-33-33-7-77-77-7-77-77-5-55-55-5-55-55-7-77-77-7-77-77-3-33-33-
-1-11-11-1-11-11-5-55-55-5-55-55-----------------5-55-55-5-55-55-1-11-11-

-------------------------
-------------------------
-------------------------
-3-33-33-7-77-77-7-77-77-
-3-33-33-7-77-77-7-77-77-
-1-11-11-5-55-55-5-55-55-
Comments