Pulley - Runaway Chords & Tabs

 

Runaway Chords & Tabs

Pulley Chords & Tabs

Version: 1 Type: Bass Tab 0 ratings
1 star 2 stars 3 stars 4 stars 5 stars
comments

Runaway Bass Tab

   
Pulley - Runaway
Submitted By: Joe Cavanaugh
EMail: PunkRokStar87@yahoo.com
Album: Punk O' Rama vol 1
4 String Bass
Tuning: E,A,D,G

Intro
G-----------------------------------------------------------------------
D----------5-----5--------5-----5---------------------------------------
A--3-3-3----3-3-----3-3-3---3-3-------------5------5--------5------5----
E--------------------------------------3-3-3----3-3---3-3-3---3-3-------

G------------------------------------------------5-------5---------5-------5-
D----------3-----3--------3-----3---------3-3-3-----3-3------3-3-3----3-3----
A--1-1-1----1-1-----1-1-1---1-1----------------------------------------------
E----------------------------------------------------------------------------
[ Tab from: http://www.guitartabs.cc/tabs/p/pulley/runaway_btab.html ]
Verse
G--------------------------------------------------------------------------
D---------------------------------------------------------333333333333-----
A--333333333333---------------------111111111111---------------------------
E---------------333333333333-----------------------------------------------

Chorus
G---------------------------------------------------------------------------
D-------------------555555555555---------------------------333333333333-----
A--333333333333------------------------555555555555-------------------------
E---------------------------------------------------------------------------

Outro
G------------------------------------
D----3-2-0------3-2-0----------------
A--------------------------3333------
E------------------------------------

Thats about it!!!  
email me if any problems come up.
go to my friends band site  www.tenthvotefailed.tk
ROCK ON!
Comments