Pulley - Cashed In Chords & Tabs

 

Cashed In Chords & Tabs

Pulley Chords & Tabs

Version: 2 Type: Bass Tab 0 ratings
1 star 2 stars 3 stars 4 stars 5 stars
comments

Cashed In Bass Tab

Song: Cashed in
Band: Pulley
Album: ...Punk-o-Rama 2
tabbed by: Carlos Pino

    intro/verse
G:---------------------------------------------------------------
D:---------------------------------------------------------------
A:--------------------5-5-6-5-6-5-8-5-6--------------------
E:-3-3-3-1-1-1-----------------------------------------------

[ Tab from: http://www.guitartabs.cc/tabs/p/pulley/cashed_in_btab_ver_2.html ]
G:---------------------------------------------------------------
D:---------------------------------------------------------------
A:---------------------------------------------------------------
E:-8-8-8-8-8-8--6-6-6-6-6-6-13-13-13-13-13-13-6-6-6-6-6-6-8-8-8-6-6-6


G:-------------------------------------------------------------------------
D:-------------------------------------------------------------------------
A:--6-6-6-6-6-6--5-5-5-5-5-5-3-3-3-3-3-3-3-5-5-5-5-5-5--3-3-3-1-1-1-3-3-3-1-1-1
E:--------------------------------------------------------------------------

figure it out

Comments