Pug Jelly - Its Over When Im Sober Chords & Tabs

 

Its Over When Im Sober Chords & Tabs

Pug Jelly Chords & Tabs

Version: 1 Type: Tab 0 ratings
1 star 2 stars 3 stars 4 stars 5 stars
comments

Its Over When Im Sober Tab

It's Over When I'm Sober	
Pug Jelly

* palm mute

intro
e |-------5-4-5-7-5-4-5-------------------------
B |-2-3-5---------------5-4-2-0---2-0---2-0--0--
G |-----------------------------2-----2-----2--- 2X
D |---------------------------------------------
A |---------------------------------------------
E |---------------------------------------------

(verse) now that is over...
e |-----------------------------------------
B |-----------------------------------------
G |-----------------------------------------
D |-7--6--4--2--0--2--0--2------------------
A |-----------------------------------------
E |-----------------------------------------

(fast)
e |----------------------------------------------------------------------------
B |----------------------------------------------------------------------------
G |-----------99-9-99-9--1111-11-1111-11-66-6-66-6-77-7-77-7-99-9-99-9---------
D |-77-7-77-7-99-9-99-9--1111-11-1111-11-66-6-66-6-77-7-77-7-99-9-99-9-7-7-77--
A |-77-7-77-7-77-7-77-7---9-9--9--9-9--9-44-4-44-4-55-5-55-5-77-7-77-7-7-7-77--
E |-55-5-55-5----------------------------------------------------------5-5-55--
    **   **   **   **     * *     * *    **   **   **   **   **   **    

(chorus) step back you're....
e |-----------------------------------------------
B |-----------------------------------------------
G |-----999-7-6--7-9-111111-999-------------------
D |-777-999-x-x--x-x-111111-999-777---------------
A |-777-777-5-4--5-7--9-9-9-777-777-45-7-54-------
E |-555-------------------------555---------------


e |--------------------------------------------------
B |--------------------------------------------------
G |-----999-7-6--7-9-111111-999-444-444-6-|-777-999--
D |-777-999-x-x--x-x-111111-999-444-444-6-|-777-999--
A |-777-777-5-4--5-7--9-9-9-777-222-222-4-|-555-777--
E |-555----------------------------------------------

(verse2) me and you...
e |-----------------------------------------
B |-----------------------------------------
G |-----------------------------------------
D |-7--6--4--2--0--2--0--2------------------
A |-----------------------------------------
E |-----------------------------------------
[ Tab from: http://www.guitartabs.cc/tabs/p/pug_jelly/its_over_when_im_sober_tab.html ]
(fast)
e |----------------------------------------------------------------------------
B |----------------------------------------------------------------------------
G |-----------99-9-99-9--1111-11-1111-11-66-6-66-6-77-7-77-7-99-9-99-9---------
D |-77-7-77-7-99-9-99-9--1111-11-1111-11-66-6-66-6-77-7-77-7-99-9-99-9-7-7-77--
A |-77-7-77-7-77-7-77-7---9-9--9--9-9--9-44-4-44-4-55-5-55-5-77-7-77-7-7-7-77--
E |-55-5-55-5----------------------------------------------------------5-5-55--
    **   **   **   **     * *     * *    **   **   **   **   **   **    


(chorus) step back you're ...
e |-----------------------------------------------
B |-----------------------------------------------
G |-----999-7-6--7-9-111111-999-------------------
D |-777-999-x-x--x-x-111111-999-777---------------
A |-777-777-5-4--5-7--9-9-9-777-777-45-7-54-------
E |-555-------------------------555---------------


e |--------------------------------------------------
B |--------------------------------------------------
G |-----999-7-6--7-9-111111-999-444-444-6-|-777-999--
D |-777-999-x-x--x-x-111111-999-444-444-6-|-777-999--
A |-777-777-5-4--5-7--9-9-9-777-222-222-4-|-555-777--
E |-555----------------------------------------------


bridge
e |---------------------------------------------------------------
B |---------------------------------------------------------------
G |-------------777-7-777-7-------------777-7---------------------
D |-444-4-444-4-777-7-777-7-444-4-444-4-777-7---------------------
A |-444-4-444-4-555-5-555-5-444-4-444-4-555-5----7-5-4-7-5-4------
E |-222-2-222-2-------------222-2-222-2---------------------------

e |---------------------------------------------------------------
B |---------------------------------------------------------------
G |-------------777-7-777-7-------------99999999------------------
D |-444-4-444-4-777-7-777-7-444-4-444-4-99999999--------1-4-7-----
A |-444-4-444-4-555-5-555-5-444-4-444-4-77777777----0-3-----------
E |-222-2-222-2-------------222-2-222-2-----------2---------------



(chorus) step back you're ...
e |-----------------------------------------------
B |-----------------------------------------------
G |-----999-7-6--7-9-111111-999-------------------
D |-777-999-x-x--x-x-111111-999-777---------------
A |-777-777-5-4--5-7--9-9-9-777-777-45-7-54-------
E |-555-------------------------555---------------


e |--------------------------------------------------
B |--------------------------------------------------
G |-----999-7-6--7-9-111111-999-444-444-6-|-777-999--
D |-777-999-x-x--x-x-111111-999-444-444-6-|-777-999--
A |-777-777-5-4--5-7--9-9-9-777-222-222-4-|-555-777--
E |-555----------------------------------------------

slap_me@pugjelly.tk
http://www.pugjelly.tk
get more tabs there
Comments