Pug Jelly - Holiday Chords & Tabs

 

Holiday Chords & Tabs

Pug Jelly Chords & Tabs

Version: 1 Type: Bass Tab 0 ratings
1 star 2 stars 3 stars 4 stars 5 stars
comments

Holiday Bass Tab

Song title: Holiday
Band: Pug Jelly
Album: Motivation For Getting Up In The Morning
Tabbed out by: peter a.k.a addicted2bass

Note: Well this is my first time tabbing, and also my first time being a bassist. I have 
bass, so i tabbed this song out with the EADG strings of a guitar 0_o haha. This song 
awesome, and im really excited tabbing this one out. Okay then here we go!!!

Intro riff (after the drum riff)

G|----------------------------------------------------|
D|----------------------------------------------------|
A|-2-2-2-2---------2-2-2-2----------------------------|
E|---------0-0-3-3---------0-0-3-2--------------------|

Verse 1 (do this throughout the verse)

G|----------------------------------------------------|
D|----------------------------------------------------|
A|-2-2-2-2-1-1-1-1------------------------------------|
E|-----------------4-4-4-4-0-0-2-2--------------------|

Chorus
[ Tab from: http://www.guitartabs.cc/tabs/p/pug_jelly/holiday_btab.html ]
G|----------------------------------------------------|
D|----------------------------------------------------|
A|-2-2-1-1-------------2-2----------------------------|
E|---------4-4-2-2-0-0-----0-0-2-2--------------------|

G|----------------------------------------------------|
D|----------------------------------------------------|
A|-2-2-1-1-------------2-2---------2-2-2-2-2-2-2------|
E|---------4-4-2-2-0-0-----0-0-2-2--------------------|

Verse 2 (same as verse 1)

Bridge (Ive been waiting...here for so long...)

G|----------------------------------------------------|
D|----------------------------------------------------|
A|-----------------2-2-1-1----------------------------|
E|-0-0-0-0-2-2-2-2---------4-4-4-4--------------------|

G|----------------------------------------------------|
D|----------------------------------------------------|
A|----------------------------------------------------|
E|-0-0-0-0-2-2-2-2-7-6-5-4----------------------------|

G|----------------------------------------------------|
D|----------------------------------------------------|
A|---------2-2-2-2------------------------------------|
E|-0-0-0-0---------2-2-2-2----------------------------|

Yup thats about it. Please rate this tab, and feel free to mail me at 
for any corrections, comments or suggestions. Enjoy the tab!! Cheers!! :)
Comments