Pug Jelly - Come Home Soon Chords & Tabs

 

Come Home Soon Chords & Tabs

Pug Jelly Chords & Tabs

Version: 2 Type: Tab 0 ratings
1 star 2 stars 3 stars 4 stars 5 stars
comments

Come Home Soon Tab

Tabbed by: Jayme Lim Hui Min
Email: jayme_tide@hotmail.com

Tuning: Standard Tuning

Guitar 1: Masashi
Guitar 2: Chris

Intro
Guitar 2
e|------------------------------------------------------------------------|
B|------------------------------------------------------------------------|
G|-5555-4444-2222----------------5xx5x5555--------------------------------|x2
D|-5555-5555-2222-5555-3333-5555-5xx5x5555--------------------------------|
A|-3333-2222-0000-5555-3333-5555-3xx3x3333--------------------------------|
E|----------------3333-1111-3333------------------------------------------|

Guitar 1
e|------------------------------------------------------------------------|
B|----8----8------8-----8------8----8-----8---6565------------------------|
G|--5---55---5/4/5---55---5/4/5--55--5/4/5--5-----75----------------------|x2
D|------------------------------------------------------------------------|
A|------------------------------------------------------------------------|
E|------------------------------------------------------------------------|

Verse 1
Guitar 2
e|------------------------------------------------------------------------|
B|------------------------------------------------------------------------|
G|-5555-4444-2222----------------5xx5x5555--------------------------------|
D|-5555-5555-2222-5555-3333-5555-5xx5x5555--------------------------------|
A|-3333-2222-0000-5555-3333-5555-3xx3x3333--------------------------------|
E|----------------3333-1111-3333------------------------------------------|
Pm:.... .... .... .... .... ....

e|------------------------------------------------------------------------|
B|------------------------------------------------------------------------|
G|-5555-4444-2222----------------5xx5x5555--------------------------------|
D|-5555-5555-2222-5555-3333-5555-5xx5x5555--------------------------------|
A|-3333-2222-0000-5555-3333-5555-3xx3x3333--------------------------------|
E|----------------3333-1111-3333------------------------------------------|
Pm:.... .... .... .... .... ....

Guitar 1
e|------------------------------------------------------------------------|
B|------------------------------------------------------------------------|
G|-5555-4444-2222----------------5xx5x5555--------------------------------|
D|-5555-5555-2222-5555-3333-5555-5xx5x5555--------------------------------|
A|-3333-2222-0000-5555-3333-5555-3xx3x3333--------------------------------|
E|----------------3333-1111-3333------------------------------------------|
Pm:.... .... .... .... .... ....

e|------------------------------------------------------------------------|
B|------------------------------------------------------------------------|
G|-5555-4444-2222----------------5xx5x5555--------------------------------|
D|-5555-5555-2222-5555-3333-5555-5xx5x5555--------------------------------|
A|-3333-2222-0000-5555-3333-5555-3xx3x3333--------------------------------|
E|----------------3333-1111-3333------------------------------------------|
Pm: ..   ..   ..   ..   ..   ..

Chorus
Both Guitars
e|------------------------------------------------------------------------|
B|------------------------------------------------------------------------|
G|-----------55-44-2222-----------55-44-2222-----------55-44-2222---------|
D|-3333-5555-55-55-2222-3333-5555-55-55-2222-3333-5555-55-55-2222---------|
A|-3333-5555-33-22-0000-3333-5555-33-22-0000-3333-5555-33-22-0000---------|
E|-1111-3333------------1111-3333------------1111-3333--------------------|

Guitar 2
e|------------------------------------------------------------------------|
B|------------------------------------------------------------------------|
G|------------------------------------------------------------------------|
D|-3333-5555--------------------------------------------------------------|
A|-3333-5555--------------------------------------------------------------|
E|-1111-3333--------------------------------------------------------------|

Guitar 1
e|------------------------------------------------------------------------|
B|------------------------------------------------------------------------|
G|---------------024505---------------------------------------------------|
D|-3333-5555--023---------------------------------------------------------|
A|-3333-5555-3------------------------------------------------------------|
E|-1111-3333--------------------------------------------------------------|

Verse 2
Guitar 2
e|------------------------------------------------------------------------|
B|------------------------------------------------------------------------|
G|-5555-4444-2222----------------5xx5x5555--------------------------------|
D|-5555-5555-2222-5555-3333-5555-5xx5x5555--------------------------------|
A|-3333-2222-0000-5555-3333-5555-3xx3x3333--------------------------------|
E|----------------3333-1111-3333------------------------------------------|
Pm:.... .... .... .... .... ....

e|------------------------------------------------------------------------|
B|------------------------------------------------------------------------|
G|-5555-4444-2222----------------5xx5x5555--------------------------------|
D|-5555-5555-2222-5555-3333-5555-5xx5x5555--------------------------------|
A|-3333-2222-0000-5555-3333-5555-3xx3x3333--------------------------------|
E|----------------3333-1111-3333------------------------------------------|
Pm: ..   ..   ..   ..   ..   ..
[ Tab from: http://www.guitartabs.cc/tabs/p/pug_jelly/come_home_soon_tab_ver_2.html ]
Guitar 1
e|------------------------------------------------------------------------|
B|------------------------------------------------------------------------|
G|-5555-4444-2222----------------5xx5x5555--------------------------------|
D|-5555-5555-2222-5555-3333-5555-5xx5x5555--------------------------------|
A|-3333-2222-0000-5555-3333-5555-3xx3x3333--------------------------------|
E|----------------3333-1111-3333------------------------------------------|
Pm:.... .... .... .... .... ....

e|------------------------------------------------------------------------|
B|--565-5--565-5--565-5--5-85--565-5--565-5-------------------------------|
G|-5---7--5---7--5---7--5-----5---7--5---7-5------------------------------|
D|------------------------------------------------------------------------|
A|------------------------------------------------------------------------|
E|------------------------------------------------------------------------

Chorus
Both Guitars
e|------------------------------------------------------------------------|
B|------------------------------------------------------------------------|
G|-----------55-44-2222-----------55-44-2222-----------55-44-2222---------|
D|-3333-5555-55-55-2222-3333-5555-55-55-2222-3333-5555-55-55-2222---------|
A|-3333-5555-33-22-0000-3333-5555-33-22-0000-3333-5555-33-22-0000---------|
E|-1111-3333------------1111-3333------------1111-3333--------------------|

e|------------------------------------------------------------------------|
B|------------------------------------------------------------------------|
G|-----------5xx5x5555----------------------------------------------------|x2
D|-3333-5555-5xx5x5555----------------------------------------------------|
A|-3333-5555-3xx3x3333----------------------------------------------------|
E|-1111-3333--------------------------------------------------------------|
                            
e|------------------------------------------------------------------------|
B|------------------------------------------------------------------------|
G|-----------5555-4444-3333-2~~~------------------------------------------|
D|-3333-5555-5555-4444-3333-2~~~------------------------------------------|
A|-3333-5555-3333-2222-1111-0~~~------------------------------------------|
E|-1111-3333--------------------------------------------------------------|
  
Bridge
Both Guitars                  
e|------------------------------------------------------------------------|
B|------------------------------------------------------------------------|
G|------------------------------------------------------------------------|
D|-33333333-55555555-33333333-55555555-33333333-55555555------------------|
A|-33333333-55555555-33333333-55555555-33333333-55555555------------------|
E|-11111111-33333333-11111111-33333333-11111111-33333333------------------|

Solo:
Guitar 2
e|------------------------------------------------------------------------|
B|------------------------------------------------------------------------|
G|-5555-4444-2222----------------5xx5x5555--------------------------------|x2
D|-5555-5555-2222-5555-3333-5555-5xx5x5555--------------------------------|
A|-3333-2222-0000-5555-3333-5555-3xx3x3333--------------------------------|
E|----------------3333-1111-3333------------------------------------------|

Guitar 1
e|------------------------------------------------------------------------|
B|------131213-------1312--10-10-8-------8--------------------------------|
G|---9-12---------0------12-------10-9-10-10-9----------------------------|
D|-10----------023-79-------------------------1210-----10-----------------|
A|------------3-----------------------------------10-10--10---------------|
E|------------------------------------------------------------------------|

e|---------------------12-----------------10h12p10h12p10h12p10------------|
B|-810-8810-8108-131315--15131213v-131213---------------------131213v-----|
G|------------------------------------------------------------------------|
D|------------------------------------------------------------------------|
A|------------------------------------------------------------------------|
E|------------------------------------------------------------------------|

Chorus
Both Guitars
e|------------------------------------------------------------------------|
B|------------------------------------------------------------------------|
G|-----------55-44-2222-----------55-44-2222-----------55-44-2222---------|
D|-33---5~~~-55-55-2222-3333-5555-55-55-2222-3333-5555-55-55-2222---------|
A|-33---5~~~-33-22-0000-3333-5555-33-22-0000-3333-5555-33-22-0000---------|
E|-11---3~~~------------1111-3333------------1111-3333--------------------|
Pm:..

e|------------------------------------------------------------------------|
B|------------------------------------------------------------------------|
G|-----------5xx5x5555----------------------------------------------------|x2
D|-3333-5555-5xx5x5555----------------------------------------------------|
A|-3333-5555-3xx3x3333----------------------------------------------------|
E|-1111-3333--------------------------------------------------------------|

e|------------------------------------------------------------------------|
B|------------------------------------------------------------------------|
G|-------------------5xx5x5555--------------------------------------------|
D|-3~~~~~~~-5~~~~~~~-5xx5x5555--------------------------------------------|
A|-3~~~~~~~-5~~~~~~~-3xx3x3333--------------------------------------------|
E|-1~~~~~~~-3~~~~~~~------------------------------------------------------|
Comments