Pug Jelly - Boxing Day Chords & Tabs

 

Boxing Day Chords & Tabs

Pug Jelly Chords & Tabs

Version: 1 Type: Tab 0 ratings
1 star 2 stars 3 stars 4 stars 5 stars
comments

Boxing Day Tab

Boxing Day
Pug Jelly

Standard tuning

so this is a really cool song from the EP.the second guitar sounds
really cool but i had hard time writing it down. so i did my best
and you should try to figure it out more yourself by listening to
the cd. i've also included the timings for the pauses. i'm open 
to any corrections or comments.

INTRO
guitar 1                                         00:14
e|-------------------------------------------------|---------------
B|-------------------------------------------------|---------------
G|-------------------------------------------------|---------------
D|---5-3-2--5-3-2--5-3-2--------------5-3-2---5-3-2|---5-3-2-------
A|----------------5------3-------------------------|5-------3------
E|-------------------------------------------------|---------------

guitar 2                                     00:14
e|---------------------------------------------|-------------------
B|---------------------------------------------|-------------------
G|-55555-22222-------------22------55555-22222-|------------22-----
D|-55555-22222-55555-33333-22-55---55555-22222-|55555-33333-22-55--
A|-33333-00000-55555-33333-00-55---33333-00000-|55555-33333-00-55--
E|-------------33333-11111----33---------------|33333-11111----33--


it's just another day...
guitar 1
e|-------------------------------------------
B|-------------------------------------------
G|-5-----------------------------------------
D|-5-let ring--------------------------------
A|-3-----------------------------------------
E|-------------------------------------------

guitar 2
e|-------------------3-1---------------------
B|-----------------------5-3-----------------
G|-5-----------------------------------------
D|-5-let ring--------------------------------
A|-3-----------------------------------------
E|-------------------------------------------



what's this occassion for?

guitar 1                      00:34
e|------------------------------|----
B|------------------------------|----
G|-55555------------------------|----
D|-55555-22222-33333-555555555--|----
A|-33333-22222-33333-555555555--|----
E|-------00000-11111-333333333--|----

guitar 2 (use hammer-ons and pull-offs, too lazy 
to write them all down there :p, and i know it's 
not accurate but you can figure it out fast, just 
listen to the cd and u'll get it right)
                                00:34 
e|--------------------------------|----
B|-------5---5---5-656565----5----|----
G|-545457-757-757-7------457---7--|----
D|--------------------------------|----
A|--------------------------------|----
E|--------------------------------|----

[ Tab from: http://www.guitartabs.cc/tabs/p/pug_jelly/boxing_day_tab.html ]
...more! it's another...
guitar 1 & 2
e|--------------------------------------
B|--------------------------------------
G|-555555----------222222--------22-----   2X
D|-555555--3333333-222222-333333-22-55--
A|-333333--3333333-000000-333333-00-55--
E|---------1111111--------111111----33--



parties late at night...
guitar 1&2
                          00:55
e|--------------------------|-------------------------------
B|--------------------------|-------------------------------
G|5555-5-5555-5-------------|-------------------------------
D|5555-5-5555-5-2222-2-2222-|-3333-3-3333-3-5555-5-555555---
A|3333-3-3333-3-2222-2-2222-|-3333-3-3333-3-5555-5-555555---
E|--------------0000-0-0000-|-1111-1-1111-1-3333-3-333333---



listening to my...

guitar 1                      00:34
e|------------------------------|----
B|------------------------------|----
G|-55555------------------------|----
D|-55555-22222-33333-555555555--|----
A|-33333-22222-33333-555555555--|----
E|-------00000-11111-333333333--|----

guitar 2 (use hammer-ons and pull-offs,this 
is similar to the previous one) 
                                00:34 
e|--------------------------------|----
B|-------5---5---5-656565----5----|----
G|-545457-757-757-7------457---7--|----
D|--------------------------------|----
A|--------------------------------|----
E|--------------------------------|----


OUTRO part1
guitar 1 
e|----------------------------------
B|----------------------------------
G|-55555----------------------------
D|-55555-22222-33333-55555----------
A|-33333-22222-33333-55555----------
E|-------00000-11111-33333----------

guitar 2
e|--------------------------
B|-5---5h6-5-8-6-5----------
D|-------------------------- 4 X
D|--------------------------
A|--------------------------
E|--------------------------



OUTRO part2          
guitar 1                                                slow down
e|-----3h5-3----------3h5-3---------3h5-3----------3h5-3------------------
B|-5---------5-3------------5-3-----------5-3------------5-3--------------
D|---------------45------------45-------------45--------------5-let ring--
D|------------------------------------------------------------------------
A|------------------------------------------------------------------------
E|------------------------------------------------------------------------

guitar 2                                              slow down
e|------------------------------------------------------------------------
B|-5---5h6-5-8-6-5--5h6-5-8-6-5--5h6-5-8-6-5--5h6-5-8--6--5--let ring-----
D|------------------------------------------------------------------------   
D|------------------------------------------------------------------------  
A|------------------------------------------------------------------------  
E|------------------------------------------------------------------------  

end



pam \m/
slap_me@pugjelly.tk
http://www.pugjelly.tk
get more Pug Jelly's tabs there !
Comments