Pug Jelly - Audra Chords & Tabs

 

Audra Chords & Tabs

Pug Jelly Chords & Tabs

Version: 1 Type: Bass Tab 0 ratings
1 star 2 stars 3 stars 4 stars 5 stars
comments

Audra Bass Tab

   
Song: Audra
Band: Pug jelly
tabbed by faizal

(INTRO)

END OF INTRO
G|---------
D|---------
A|---------
E|-5555555-

VERSE
G|-------------------------------------------------------
D|-------------------------------------------------------
A|-55-55-55-55-55-55-55-555555---------------------------
E|-----------------------------777777777777-555555555555-

G|--------------------------------------------------------------------
D|--------------------------------------------------------------------
A|-55-55-55-55-55-55-55-555555----------------------------------------
E|-----------------------------777777777777-555555555555-333333333333-
[ Tab from: http://www.guitartabs.cc/tabs/p/pug_jelly/audra_btab.html ]
G|-------------------------------------------------------
D|-------------------------------------------------------
A|-------------555555------------------------------------
E|555555555555--------555555-333333333333-333333333333-5-

BRIDGE X3
G|-----------------------------------------------------
D|-----------------------------------------------------
A|-555555555555----------------------------------------
E|--------------555555555555-777777777777-333333333333-

BRIDGE END
G|----------------
D|----------------
A|----------------
E|-333333333333-5-

G|----------------
D|----------------
A|-555555---------
E|--------5555555-

ENDING X3
G|---------------------------------------------------
D|---------------------------------------------------
A|-555555555555--------------------------------------
E|--------------777777777777-555555555555-3-5-555----

ENDING CONT'D
G|------------------------------------------------------
D|------------------------------------------------------
A|-555555555555---------------------------------------5-
E|--------------777777777777-555555555555-3-5-3-5-3-5---
Comments