Pug Jelly - Another Heartache Chords & Tabs

 

Another Heartache Chords & Tabs

Pug Jelly Chords & Tabs

Version: 1 Type: Tab 0 ratings
1 star 2 stars 3 stars 4 stars 5 stars
comments

Another Heartache Tab

Another Heartache 
Pug Jelly

* palm mute
>let ring

verse
i can't make ....
e|---------------------------------------------------
B|---------------------------------------------------
G|-------------------------------7-7-7-7---5-5-5-5---
D|-5-5-5-5---4-4-4-4---2-2-2-2---7-7-7-7---5-5-5-5---
A|-5-5-5-5---5-5-5-5---2-2-2-2---5-5-5-5---3-3-3-3---
E|-3-3-3-3---2-2-2-2---0-0-0-0-----------------------
   * * * * (throughout)

e|----------------------------------------------
B|----------------------------------------------
G|-7-7-7-7---5-5-5-5---7------------------------
D|-7-7-7-7---5-5-5-5---7->-----5-5--------------
A|-5-5-5-5---3-3-3-3---5-------5-5--------------
E|-----------------------------3-3--------------

why can't you see....
e|--------------------------------------------------------------------
B|--------------------------------------------------------------------
G|-555555-777777-999999-9---555555-777777-999-777--555555-555555-77777-
D|-555555-777777-999999-9---555555-777777-999-777--555555-555555-77777-
A|-333333-555555-777777-7---333333-555555-777-555--333333-333333-55555-
E|--------------------------------------------------------------------

** you told the truth...
e|----------------------------------------------------
B|----------------------------------------------------
G|---------77-777-55-555-55-555-55555555-77777777-----
D|--55-555-77-777-55-555-55-555-55555555-77777777-----
A|--55-555-55-555-33-333-33-333-33333333-55555555-----
E|--33-333--------------------------------------------
       ***    ***    ***    ***

solo
e|--------------------------------------------------
B|--------------------------------------------------
G|-77-55-44--77-55-44--|-----------5--4-5-7--5-4----
D|---------------------|---7-5--5-------------------
A|--------------------------------------------------
E|--------------------------------------------------



e|--------------------------------------------------------------------
B|--------------------------------------------------------------------
G|-00-7-0-9-00-7-0-5-4-5-7-5-4--------7-5-4---------5-5-5-7-7-7-------
D|------------------------------7-5----------7-5-5----------------55--
A|--------------------------------------------------------------------
E|--------------------------------------------------------------------



i l ook at you and...
e|---------------------------------------
B|---------------------------------------
G|-55-5-55-5-77-7-77-7-99-9-99-9--9------
D|-55-5-55-5-77-7-77-7-99-9-99-9--9------
A|-33-3-33-3-55-5-55-5-77-7-77-7--7------
E|---------------------------------------
   **   **   **   **   **   **
[ Tab from: http://www.guitartabs.cc/tabs/p/pug_jelly/another_heartache_tab.html ]
another heartache
e|----------------------------------------------------------
B|----------------------------------------------------------
G|-55555555-77777777-9999-7777--55555555555555--77777777----
D|-55555555-77777777-9999-7777--55555555555555--77777777----
A|-33333333-55555555-7777-5555--33333333333333--55555555----
E|----------------------------------------------------------



you told the truth
e|-----------------------------------------------------------
B|-----------------------------------------------------------
G|--------77-777-55-555-55-555-5555555555-6-7777777777-------
D|-55-555-77-777-55-555-55-555-5555555555-6-7777777777-------
A|-55-555-55-555-33-333-33-333-3333333333-4-5555555555-------
E|-33-333----------------------------------------------------
      ***    ***    ***    *** 


e|---------------------------------------------------------
B|---------------------------------------------------------
G|-8888888-99-9-77-7-555555555-77777777--------------------
D|-8888888-99-9-77-7-555555555-77777777--5-5-55-55-5-7-----
A|-6666666-77-7-55-5-333333333-55555555--5-5-55-55-5-7-----
E|---------------------------------------3-3-33-33-3-5-----
           **   **   


i hope u had your fun
e|--------------------------------------------------------------------------------
B|--------------------------------------------------------------------------------
G|-55555555-77777777-9999-7777-555555555-555555555--777777777-9999-7777-55555555--
D|-55555555-77777777-9999-7777-555555555-555555555--777777777-9999-7777-55555555--
A|-33333333-55555555-7777-5555-333333333-333333333--555555555-7777-5555-33333333--
E|--------------------------------------------------------------------------------



e|------------------------------------------
B|------------------------------------------
G|-------77777-99-77--5----7----------------
D|-55555-77777-99-77--5->--7->--------------
A|-55555-55555-77-55--3----5----------------
E|-33333------------------------------------
   ***** ***** 


e|----------------------------------------------------
B|----------------------------------------------------
G|---------77-777-55-555-55-555-55555555-7------------
D|--55-555-77-777-55-555-55-555-55555555-7------------
A|--55-555-55-555-33-333-33-333-33333333-5------------
E|--33-333--------------------------------------------
       ***    ***    ***    ***

e|-------------------------------------------------------
B|-------------------------------------------------------
G|----------------7-7-55555--77777-----------------------
D|-5-5--4-4--2-2--7-7-55555--77777--------5--------------
A|-5-5--5-5--2-2--5-5-33333--55555--------5--------------
E|-3-3--2-2--0-0--------------------------3--------------


repeat solo and end

slap_me@pugjelly.tk
Comments