Puffy Amiyumi - Teen Titans Theme Chords & Tabs

 

Teen Titans Theme Chords & Tabs

Puffy Amiyumi Chords & Tabs

Version: 1 Type: Tab 0 ratings
1 star 2 stars 3 stars 4 stars 5 stars
comments

Teen Titans Theme Tab

This is my VERY first tab I wrote, so it might not be the best, but try it, and rate it 
I know if it's any good!

Teen Titans Theme

When There's Trouble You Know Who To Call!

    e|------------------------------------------|
    B|------------------------------------------|
    G|---------4-2-0----------------------------|
    D|--2-2-5--------2-0-2----------------------|
    A|------------------------------------------|
    E|------------------------------------------|

TEEN TITANS!

From Their Tower They Can See It All!


    e|------------------------------------------|
    B|------------------------------------------|
    G|---------2-4-2-0-2-4----------------------|
    D|--2-2-5-----------------------------------|
    A|------------------------------------------|
    E|------------------------------------------|

When There's Evil On The Attack!


    e|----------------------------------------|
    B|----------------------------------------|
    G|--2-0-2-0-------------------------------|
    D|----------2-2-0-2-----------------------|
    A|----------------------------------------|
    E|----------------------------------------|

You Can Rest Knowing They've Got Your Back!


    e|----------------------------------------|
    B|----------------------------------------|
    G|--2-0-2-0-------------------------------|
    D|----------2-2-0-2-----------------------|
    A|----------------------------------------|
    E|----------------------------------------|

When The World Needs Heroes On Patrol!!!


    e|----------------------------------------------|
    B|----------------------------------------------|
    G|--2-2-0-2-0-3-2-0-2-4-------------------------|
    D|----------------------------------------------|
    A|----------------------------------------------|
    E|----------------------------------------------|

TEEN TITANS!
[ Tab from: http://www.guitartabs.cc/tabs/p/puffy_amiyumi/teen_titans_theme_tab.html ]
With Their Super Powers They Unite!

    e|------------------------------------------|
    B|------------------------------------------|
    G|--------4-2-0-----------------------------|
    D|--2-2-5-------2-0-2-----------------------|
    A|------------------------------------------|
    E|------------------------------------------|

Never Met A Villain That They Liked!


    e|------------------------------------------|
    B|------------------------------------------|
    G|---------2-4-2-0-2-4----------------------|
    D|--2-2-5-----------------------------------|
    A|------------------------------------------|
    E|------------------------------------------|

They've Got The Bad Guys On The Run!


    e|-----------------------------------------|
    B|-----------------------------------------|
    G|--2-2-0-2-0------------------------------|
    D|------------2-2-0-2----------------------|
    A|-----------------------------------------|
    E|-----------------------------------------|

They Never Stop 'Till The Job Gets Done!

    e|-----------------------------------------|
    B|-----------------------------------------|
    G|--2-2-0-2-0------------------------------|
    D|------------2-2-0-2----------------------|
    A|-----------------------------------------|
    E|-----------------------------------------|

WHEN THE WORLD IS LOSIN ALL CONTROL!!!


    e|---------------------------------------------|
    B|---------------------------------------------|
    G|--2-0-2-0-3-2-0-2-4--------------------------|
    D|---------------------------------------------|
    A|---------------------------------------------|
    E|---------------------------------------------|

TEEN TITANS!

1 2 3 4 Go
TEEN TITANS!


My Info

Username: swordsman_nick
Name: Nick Maniakc
E-mail: swordsman_nick@hotmail.com

If you enjoyed playing this, and you find it good, feel free to e-mail me comments!
Thanks!
Comments