Puff Daddy - Ill Be Missing You Chords & Tabs

 

Ill Be Missing You Chords & Tabs

Puff Daddy Chords & Tabs

Version: 2 Type: Tab 7 ratings
1 star 2 stars 3 stars 4 stars 5 stars
comments

Ill Be Missing You Tab

   
This is a good song to play if you play it right. 
It is just the intro but you can play it in the backround for the rest of the song, 
it is the same for the original by sting. 

Normal tuning E, A, D, G, B, E
[ Tab from: http://www.guitartabs.cc/tabs/p/puff_daddy/ill_be_missing_you_tab_ver_2.html ]
 ------------------
 ----------0-------
 ------2-----2---2-    x2
 ----0---0-----0---
 ------------------
 --3---------------   
 
 ------------------
 ------------------
 ----------0-------    x2
 ------4-----4---4-
 ----2---2-----2---
 --0---------------   

 ----------0-------
 ------3-----3---3-
 ----0---0-----0---
 ------------------
 --3--------------- 
 ------------------  

 ----------2-------
 ------3-----3---2-
 ----2---2-----2---
 --0---------------
 ------------------
 ------------------   
Comments