Puff Daddy - Ill Be Missing You Chords & Tabs

 

Ill Be Missing You Chords & Tabs

Puff Daddy Chords & Tabs

Version: 1 Type: Tab 0 ratings
1 star 2 stars 3 stars 4 stars 5 stars
comments

Ill Be Missing You Tab

   
Tabbed by:jcf_182@yahoo.com

Puff Daddy-I’ll Be Missing You
Chords:
A-F#m-D-E

E----------------------------------------------
B----------------------------------------------
G------------6------------------6--------------
D--------9-----9---9--------9-----9---9--------
A------7---7-----7--------7---7-----7----------
E----5------------------5----------------------

E----------------------------------------------
B----------------------------------------------
G---------2----------------2-------------------
D-------6---6---6--------6---6---6-------------
A-----4-------4--------4-------4---------------
E—---2---------------2-------------------------

[ Tab from: http://www.guitartabs.cc/tabs/p/puff_daddy/ill_be_missing_you_tab.html ]
E----------------------------------------------
B----------------------------------------------
G--------9---7---------------------------------
D------7---7---7---7---------------------------
A----5-----------5-----------------------------
E----------------------------------------------


E----------------------------------------------
B----------------------------------------------
G--------11---9--------------------------------
D------9----9---9---9--------------------------
A----7------------7----------------------------
E----------------------------------------------


There you go the nice tablature of ill be missing you by
Puff daddy. Im not sure but it sounds almost the real one .If you have any comments, e-mail me at www.jcf_182@yahoo.com. Enjoy!!!!!



Comments