Puff Daddy - Come With Me Chords & Tabs

 

Come With Me Chords & Tabs

Puff Daddy Chords & Tabs

Version: 3 Type: Tab 0 ratings
1 star 2 stars 3 stars 4 stars 5 stars
comments

Come With Me Tab

The intro is the same thing as Kashmir by Led Zeppelin.

Intro
-----------------------------------------------------
-----------------------------------------------------
-4-4-4--4-4-4---5-5-5--5-5-5---6-6-6--6-6-6---7-7-7--
-x-x-x--x-x-x---x-x-x--x-x-x---x-x-x--x-x-x---x-x-x--
-2-2-2--2-2-2---3-3-3--3-3-3---4-4-4--4-4-4---5-5-5--
--------------0--------------0--------------0-------- 
(Continued)
----------------       x=mute
----------------       /=slide 
7-7-7----9-9-9--       *=let ring
x-x-x----x-x-x--
5-5-5----7-7-7--
------0---------
[ Tab from: http://www.guitartabs.cc/tabs/p/puff_daddy/come_with_me_tab_ver_3.html ]
I had to guess at the outro considering the only thing you can hear are the violins.
------------------------------------------------------
------------------------------------------------------
13-13-13---13-13-13--11-11-11--11-11-11---9-9-9--9-9-9
xx-xx-xx---xx-xx-xx--xx-xx-xx--xx-xx-xx---x-x-x--x-x-x
11-11-11---11-11-11---9--9--9---9--9--9---7-7-7--7-7-7
--------------------0-------------------0-------------
(Continued)

---------------------------------------------------
---------------------------------------------------
--7-7-7--7*/13-13-13-------------------------------
--x-x-x--------------------------------------------
--5-5-5--5*/11-11-11-------------------------------
0--------------------------------------------------
Comments