Puff Daddy - Bad Boy For Life Chords & Tabs

 

Bad Boy For Life Chords & Tabs

Puff Daddy Chords & Tabs

Version: 13 Type: Tab 0 ratings
1 star 2 stars 3 stars 4 stars 5 stars
comments

Bad Boy For Life Tab

*standard tuning*

-intro-

e----------------------------
b----------------------------
d----------------------------
g----------------------------
a-5-3-5-3--------------------
e---------6------------------

(repeat once)
[ Tab from: http://www.guitartabs.cc/tabs/p/puff_daddy/bad_boy_for_life_tab_ver_13.html ]
-rest of the song-
e-----------------------------------------------------------
b-----------------------------------------------------------
d-----3-----------------------------------------------------
g-------5-3-5---3-------------------------------------------
a-----------------5----5-3-5---5-5-3------5-3---------------
e-33---------------------------------6-33-----6-3-6-3-------


That's the song, play it over and over.
Comments