Puddle Of Mudd - Think Chords & Tabs

 

Think Chords & Tabs

Puddle Of Mudd Chords & Tabs

Version: 1 Type: Tab 0 ratings
1 star 2 stars 3 stars 4 stars 5 stars
comments

Think Tab

   
Band- Puddle Of Mudd
Song- Think

Verse 1
Guitar 1 (acoustic)
*Note that Wes mostly strums the top strings, and just strums the lower strings on the downbeat
        E                   G
Eb -----0-------------------3-------------------------------------------------------|
Bb -----0-------------------3-------------------------------------------------------|
Gb -----1-------------------0-------------------------------------------------------|
Db -----2-------------------0-------------------------------------------------------|
Ab -----2-------------------2-------------------------------------------------------|
Eb -----0-------------------3-------------------------------------------------------|


Guitar 2
*Note that Paul comes in and plays each note once when Wes is singing �drink, drink, drink)
        E	          G
Eb ----------------------------------------------------------------------------------|
Bb ----------------------------------------------------------------------------------|
Gb ----------------------------------------------------------------------------------|
Db -----2----------5-----------------------------------------------------------------|
Ab -----2----------5-----------------------------------------------------------------|
Eb -----0----------3-----------------------------------------------------------------|

Pre Chorus
Guitar 1 (acoustic)
*Note that both guitars are playing constant eighth notes
        E                   G                  C               Am
Eb -----0-------------------3------------------0---------------0---------------------|
Bb -----0-------------------3------------------1---------------0---------------------|
Gb -----1-------------------0------------------0---------------2---------------------|
Db -----2-------------------0------------------2---------------2---------------------|
Ab -----2-------------------2------------------3---------------0---------------------|
Eb -----0-------------------3--------------------------------------------------------|

Guitar 2
*Note that every note is palm muted
        E	          G          C        A
Eb ---------------------------------------------------------------------------------|
Bb ---------------------------------------------------------------------------------|
Gb ---------------------------5-----------------------------------------------------|
Db -----2----------5----------5--------7--------------------------------------------|
Ab -----2----------5----------3--------7--------------------------------------------|
Eb -----0----------3-------------------5--------------------------------------------|

Verse 2

Guitar 1 (acoustic)

        E                   G
Eb -----0-------------------3-------------------------------------------------------|
Bb -----0-------------------3-------------------------------------------------------|
Gb -----1-------------------0-------------------------------------------------------|
Db -----2-------------------0-------------------------------------------------------|
Ab -----2-------------------2-------------------------------------------------------|
Eb -----0-------------------3-------------------------------------------------------|

Guitar 2 (electric)
*Note that in Verse 2, Paul plays the 1st time only, when Wes is Singing 
gunna be alright!�

        E	          G
Eb ---------------------------------------------------------------------------------|
Bb ---------------------------------------------------------------------------------|
Gb ---------------------------------------------------------------------------------|
Db -----2----------5----------------------------------------------------------------|
Ab -----2----------5----------------------------------------------------------------|
Eb -----0----------3----------------------------------------------------------------|

Pre Chorus

Guitar 1 (acoustic)
*Note that both guitars are playing constant eighth notes
        E                   G                  C               Am
Eb -----0-------------------3------------------0---------------0--------------------|
Bb -----0-------------------3------------------1---------------0--------------------|
Gb -----1-------------------0------------------0---------------2--------------------|
Db -----2-------------------0------------------2---------------2--------------------|
Ab -----2-------------------2------------------3---------------0--------------------|
Eb -----0-------------------3-------------------------------------------------------|
[ Tab from: http://www.guitartabs.cc/tabs/p/puddle_of_mudd/think_tab.html ]
Guitar 2
*Note that every note is palm muted
        E	          G          C        A
Eb ---------------------------------------------------------------------------------|
Bb ---------------------------------------------------------------------------------|
Gb ---------------------------5-----------------------------------------------------|
Db -----2----------5----------5--------7--------------------------------------------|
Ab -----2----------5----------3--------7--------------------------------------------|
Eb -----0----------3-------------------5--------------------------------------------|

Chorus

Guitars 1 and 2 (acoustic and electric)

        C               Am
Eb -----0---------------0--------------------------|
Bb -----1---------------0--------------------------|
Gb -----0---------------2--------------------------|
Db -----2---------------2--------------------------|
Ab -----3---------------0--------------------------|
Eb  -----------------------------------------------|

Verse 3

Guitar 1 (acoustic)

        E                   G
Eb -----0-------------------3-------------------------------------------------------|
Bb -----0-------------------3-------------------------------------------------------|
Gb -----1-------------------0-------------------------------------------------------|
Db -----2-------------------0-------------------------------------------------------|
Ab -----2-------------------2-------------------------------------------------------|
Eb  ----0-------------------3-------------------------------------------------------|

Guitar 2 (electric)
*Note that in Verse 3, Paul plays the 1st time only, when Wes is Singing 
gunna be alright!�

        E	          G
Eb ---------------------------------------------------------------------------------|
Bb ---------------------------------------------------------------------------------|
Gb ---------------------------------------------------------------------------------|
Db -----2----------5----------------------------------------------------------------|
Ab -----2----------5----------------------------------------------------------------|
Eb -----0----------3----------------------------------------------------------------|


Pre Chorus

Guitar 1 (acoustic)
*Note that both guitars are playing constant eighth notes
        E                   G                  C               Am
Eb -----0-------------------3------------------0---------------0--------------------|
Bb -----0-------------------3------------------1---------------0--------------------|
Gb -----1-------------------0------------------0---------------2--------------------|
Db -----2-------------------0------------------2---------------2--------------------|
Ab -----2-------------------2------------------3---------------0--------------------|
Eb -----0-------------------3-------------------------------------------------------|

Guitar 2
*Note that every note is palm muted
        E	          G          C        A
Eb ---------------------------------------------------------------------------------|
Bb ---------------------------------------------------------------------------------|
Gb ---------------------------5-----------------------------------------------------|
Db -----2----------5----------5--------7--------------------------------------------|
Ab -----2----------5----------3--------7--------------------------------------------|
Eb -----0----------3-------------------5--------------------------------------------|

Chorus

Guitars 1 and 2 (acoustic and electric)

        C               Am
Eb -----0---------------0--------------------------|
Bb -----1---------------0--------------------------|
Gb -----0---------------2--------------------------|
Db -----2---------------2--------------------------|
Ab -----3---------------0--------------------------|
Eb  -----------------------------------------------|

Then at the end it all ends on an E

Guitar 1 (acoustic)

        E
Eb -----0-----------|
Bb -----0-----------|
Gb -----1-----------|
Db -----2-----------|
Ab -----2-----------|
Eb -----0-----------|


Guitar 2 (electric)
        E
Eb -----------------|
Bb -----------------|
Gb -----------------|
Db -----2-----------|
Ab -----2-----------|
Eb -----0-----------|

Wait, wait, wait, you never wanna
Wait, wait, wait, slow down stop and
Think, think, think, you never wanna
Think, think, think, cause ev�ry
Thing
Could it be a
Dream, dream,
Another bad dream?
So I
Drink, drink, drink, drink, drink,
I�m putting down the
Drink, drink, cause I can�t feel a thing
Cause ev�ry time I say goodbye
I�ve seen that look a thousand times
There�s no more room left inside
It�s gunna be alright
(oh yeah)
It�s gunna be alright
Fear, fear, fear,
Just don�t be
Afraid, fraid, fraid,
I want you to be
Waste, waste, waste
Waste away the
Days, days, flush it down the drain
Cause ev�ry time I say goodbye
I�ve seen that look a thousand times
There�s no more room left inside
Cause ev�ry time you say goodnight,
I�d love to watch you close your eyes
There�s no more pain left inside
It�s gunna be alright
It�s gunna be alright
It�s gunna be alright
It�s gunna be alright
(oh yeah)
It�s gunna be alright
Hate, hate, hate,
You always gotta
Hate, hate
Cause ev�ry time I say goodbye
I�ve seen that look a thousand times
There�s no more room left inside
And ev�ry time you say goodnight,
I�d love to watch you close your eyes
There�s no more pain left inside
It�s gunna be alright
It�s gunna be alright
It�s gunna be alright
It�s gunna be alright
Comments