Puddle Of Mudd - Spin You Around Chords & Tabs

 

Spin You Around Chords & Tabs

Puddle Of Mudd Chords & Tabs

Version: 2 Type: Tab 0 ratings
1 star 2 stars 3 stars 4 stars 5 stars
comments

Spin You Around Tab

Artist: Puddle Of Mudd
Song: Spin You Around
Album: Life On Display
Tab Writen By: Extremely_Rock
 
Intro
e-----------------------------------------------------|
B-----------------------------------------------------|
G---8---8---8-8-8-8-8-8-11---11-11-11-6---1-1-1-1-1-1-|
D---9---9---9-9-9-9-9-9-12---12-12-12-7---2-2-2-2-2-2-|  x2
A---9---9---9-9-9-9-9-9-12---12-12-12-7---2-2-2-2-2-2-|
E--7---7---7-7-7-7-7-7-10---10-10-10-5---------------|

Verse
e------------------------------------------------------|
B------------------------------------------------------|
G--8-8-8-8-8-8-8-8-8-8-8-11-11-11-11-11-11-6-6-6-6-6-6-|
D--9-9-9-9-9-9-9-9-9-9-9-12-12-12-12-12-12-7-7-7-7-7-7-|  x4
A--9-9-9-9-9-9-9-9-9-9-9-12-12-12-12-12-12-7-7-7-7-7-7-|
E--7-7-7-7-7-7-7-7-7-7-7-10-10-10-10-10-10-5-5-5-5-5-5-|
[ Tab from: http://www.guitartabs.cc/tabs/p/puddle_of_mudd/spin_you_around_tab_ver_2.html ]
Pre-Chorus
e------------------------|
B------------------------|
G--1-1-1-1-1-1-1-1-1-1-1-|
D--2-2-2-2-2-2-2-2-2-2-2-|
A--2-2-2-2-2-2-2-2-2-2-2-|
E------------------------|

Intro

Chorus  (I only know what Wesley plays)
e--------------------------|        |--------------------------|
B--------------------------|        |--------------------------|
G--4-4-4-4-4-4-6-6-6-6-6-6-|        |--1-1-1-1-1-1-1-1-1-1-1-1-|
D--5-5-5-5-5-5-7-7-7-7-7-7-|  x7    |--2-2-2-2-2-2-2-2-2-2-2-2-| x1
A--5-5-5-5-5-5-7-7-7-7-7-7-|        |--2-2-2-2-2-2-2-2-2-2-2-2-|
E--3-3-3-3-3-3-5-5-5-5-5-5-|        |--------------------------|

Verse x4

Chorus x7 and x1

Bridge
e--------------------------|
B--------------------------|
G--------------1-1-1-1-1-1-|
D--5-5-5-5-5-52-2-2-2-2-2-|  x7
A--5-5-5-5-5-5-2-2-2-2-2-2-|
E--3-3-3-3-3-3-------------|

Chorus x7 and x1

Chorus (Until the end)
Comments