Puddle Of Mudd - Spin You Around Chords & Tabs

 

Spin You Around Chords & Tabs

Puddle Of Mudd Chords & Tabs

Version: 1 Type: Tab 0 ratings
1 star 2 stars 3 stars 4 stars 5 stars
comments

Spin You Around Tab

   
Band - Puddle Of Mudd
Song - Spin You Around
Album - Life On Display
Tuning - Eb Ab Db Gb Bb Eb

Good song, supirsed nobodys tabbed it yet, argh well here goes.

Intro

Eb:-0~~~--0/0~~~~---0/0~~~|
Bb:-0~~~--0/0~~~~---0/0~~~|
Gb:-8~~~--8/11~~~--11/6~~~|  Let Ring, repeat how many times needed.
Db:-9~~~--9/12~~~--12/7~~~|
Ab:-9~~~--9/12~~~--12/7~~~|
Eb:-7~~~--7/10~~~--10/5~~~|

Verse
 
"Come on over the mountain..."
[ Tab from: http://www.guitartabs.cc/tabs/p/puddle_of_mudd/spin_you_around_tab.html ]
Eb:-0--------0------0------|
Bb:-0--------0------0------|
Gb:-8-------11------6------|  Repeat throughout verse
Db:-9-------12------7------|
Ab:-9--x12--12--x6--7--x6--|
Eb:-7-------10------5------|


Chorus Guitar 1

 "Well I'd spin you around.."

Eb:--------------0-0-0-0-0-0-0-0--|
Bb:--------------0-0-0-0-0-0-0-0--|
Gb:--------------1-1-1-1-1-1-1-1--|   Either play it this way or the Guitar 2
Db:-5-5-5-5-5-/7-2-2-2-2-2-2-2-2--|   way.
Ab:-5-5-5-5-5-/7-2-2-2-2-2-2-2-2--|
Eb:-3-3-3-3-3-/5-0-0-0-0-0-0-0-0--|

Chorus Guitar 2

Eb:------------------------------|
Bb:-----------2------------------|
Gb:-----------2------------------|    Both ways are correct only Guitar 1
Db:-5-5-5-5-5-2-9-9-9-9-9-9-9-9--|    is what Wes Plays i think???
Ab:-5-5-5-5-5---7-7-7-7-7-7-7-7--|
Eb:-3-3-3-3-3---7-7-7-7-7-7-7-7--|

Well thats it, Post Corrections at
Doms_BeerCo@Hotmail.com
Comments