Puddle Of Mudd - Spin You Around Chords & Tabs

 

Spin You Around Chords & Tabs

Puddle Of Mudd Chords & Tabs

Version: 1 Type: Bass Tab 0 ratings
1 star 2 stars 3 stars 4 stars 5 stars
comments

Spin You Around Bass Tab

Band- Puddle Of Mudd
Song- Spin You Around

Tuning: Standard 5 string or Eb 4 string (Eb, Ab, Db, Gb)

Verse					1.	2.	 3.
G-----------------------------------|----------|--------|---------|
D----------6------6----------------*|----------|--------|---------|
A------6-8----------8-6-------------|----------|--------|---------|
E--6~---------6~--------8-6--9~----*|----------|--------|---------|
B-------------------------------9~--|--9-9-9-9-|-6-8-9--|-4-4-4-4-|
   Listen----- for -----rythems/
[ Tab from: http://www.guitartabs.cc/tabs/p/puddle_of_mudd/spin_you_around_btab.html ]
Chorus
G---------------------------------------------|
D--------------------------------------------*|
A---------------------------------------------|
E-------------------6-6-6-6------------------*|
B--9-9-9-9-9-9-9-9-----------4-4-4-4-4-4-4-4--|

For the bridge play the with out the in 
between filler notes you\'ll hear it. 

For all you 4 string folks out there 

Verse					1.	2.	 3.
Gb------------------------------------|----------|--------|---------|
Db----------7------7-----------------*|----------|--------|---------|
Ab------7-9----------9-7-------------*|----------|--------|---------|
Eb--7~---------7~--------9-7--10~-5---|--5-5-5-5-|-2-4-5--|-0-0-0-0-|
 
Chorus
Gb---------------------------------------------|
Db--------------------------------------------*|
Ab--------------------------------------------*|
Eb--5-5-5-5-5-5-5-5--7-7-7-7--0-0-0-0-0-0-0-0--|
Comments