Puddle Of Mudd - She Hates Me Chords & Tabs

 

She Hates Me Chords & Tabs

Puddle Of Mudd Chords & Tabs

Version: 6 Type: Tab 2 ratings
1 star 2 stars 3 stars 4 stars 5 stars
comments

She Hates Me Tab

   
puddle of mudd
"she hates me"
tabbed by: Burns
email burnsofive@yahoo.com
  E       A       F#      B
-----   -----   -----   -----
-----   -----   -----   -----
--1--   -----   -----   --4--
--2--   --7--   --4--   --4--
--2--   --7--   --4--   --2--
-----   --5--   --2--   -----
[ Tab from: http://www.guitartabs.cc/tabs/p/puddle_of_mudd/she_hates_me_tab_ver_6.html ]
Verse:
    E        A       F#       B
e-----------------------------------------
B-----------------------------------------
G-----1-----------------------------4-----
D--------2-----7--------4--------4-----4--
A-----------------7--------4--2-----------
E--0--------5--------2--------------------

Chorus: strum the chords

this is 100% correct, seriously, not like those other fools say
that theirs is 100% correct.  if you disagree, feel free to email
Comments