Puddle Of Mudd - She Hates Me Chords & Tabs

 

She Hates Me Chords & Tabs

Puddle Of Mudd Chords & Tabs

Version: 17 Type: Tab 0 ratings
1 star 2 stars 3 stars 4 stars 5 stars
comments

She Hates Me Tab

   
-------------------------------------------------------------------------------
			     She hates me - Puddle of mudd
-------------------------------------------------------------------------------

Tabbed by:Zero is great man
Tuning: Tunned down half step(EbAbDbGbBbeb)
Artist: Puddle of mudd
Albulm: Come clean
Played clean unless told to play with distortion.

Intro/verse/Pre-chorus/1st chorus: "Met a girl, thought she was grand."
eb|---------------------------|
Bb|---3-----4-----5-------6---|
Gb|---2-----3-----4-------5---|
Db|---------------------------|
Ab|-------1---1-------3-3---3-|
Eb|-1--1--------3---3---------|

Guitar 2 pre-chorus/chorus fill 1: "In a trap, trip I can't grip."
eb|-----------------------------------|
Bb|-----------------------------------|
Gb|----------------------------5-7p-5-|
Db|-----------------------------------|
Ab|-----------------------------------|
Eb|-----------------------------------|

Guitar 2 pre-chorus/chorus fill 2:"I was living one big lie."
eb|-----------------------------------|
Bb|-----------------------------------|
Gb|-----------------------5-7-7-5-4-5-|
Db|-----------------------------------|
Ab|-----------------------------------|
Eb|-----------------------------------|

Guitar 2 Verse/Pre-chorus/Chorus fill 3:"she was queen for about a hour.
eb|--------------------------------------|
Bb|--------------------------------------|
Gb|-5-5-5-5-5-5-5-5-5-5-5-5-5--5-5--7p-5-|
Db|--------------------------------------|
Ab|--------------------------------------|
Eb|--------------------------------------|

Guitar 2 Verse/Pre-chorus/chorus fill 4:"No sign of guilt, no feeling of bad."
eb|-------------------------------------------|
Bb|-------------------------------------------|
Gb|-5-5-5-5-5-5-5-5-5-5-5-5-5--5-5--7-5-4-5-7-|
Db|-------------------------------------------|
Ab|-------------------------------------------|
Eb|-------------------------------------------|
[ Tab from: http://www.guitartabs.cc/tabs/p/puddle_of_mudd/she_hates_me_tab_ver_17.html ]
2nd Chorus/outro chorus:"She f*cking hates me!(W/Distortion)
eb|----------------------------|
Bb|----------------------------|
Gb|--------3-3-3---------5-5-5-|
Db|-3-3-3--3-3-3--5-5-5--5-5-5-|
Ab|-3-3-3--1-1-1--5-5-5--3-3-3-|
Eb|-1-1-1---------3-3-3--------|

Guitar solo:(play the chorus in backround)(W/Distortion and wah)
eb|--------------------------------------------------------------|
Bb|--------------------------------------------------------------|
Gb|----------3-3-3-3------3-5-5-5-----------3-3-3-3--1-1-1-5-3-5-|
Db|-3-3-3-3-----------5-5----------3-3-3-3-----------------------|
Ab|--------------------------------------------------------------|
Eb|--------------------------------------------------------------|

Solo part 2:
eb|--------------------------------------------|
Bb|--------------------------------------------|
Gb|-------------15-15-15-15--------15-17-17-17-|
Db|-15-15-15-15--------------17-17-------------|
Ab|--------------------------------------------|
Eb|--------------------------------------------|

Solo part 3:
eb|-------------------------------------------------------|
Bb|-------------------------------------------------------|
Gb|-------------15-15-15-15--------15-17-17-17-17b(19)-17-|
Db|-15-15-15-15--------------17-17------------------------|
Ab|-------------------------------------------------------|
Eb|-------------------------------------------------------|

Outro: End on
eb|-----|
Bb|-----|
Gb|-----|
Db|-3-3-|
Ab|-3-3-|
Eb|-1-1-|

| b  bend to ()
| /  slide up
| \  slide down
| h  hammer-on
| p  pull-off
| ~  vibrato
| +  harmonic
| x  Mute note

Well that's about it.  I noticed that my last tab, and the other 11 really,
sucked, though they sounded good, they all had the wrong tunning, or intro or
whatever.  I don't think I need to tell you what is played when because if you
listen carefully to the music you will know what to play and when to play it, I
even added lyrics to help you know when to cue in certain parts of the song. Hope
you enjoy it.  Feel free to rate, comment, or even correct if neccessary.
Enjoy!
===============================================================================
Comments