Puddle Of Mudd - She Hates Me Chords & Tabs

 

She Hates Me Chords & Tabs

Puddle Of Mudd Chords & Tabs

Version: 16 Type: Tab 0 ratings
1 star 2 stars 3 stars 4 stars 5 stars
comments

She Hates Me Tab

INTRO:
e|----------------------------------------|
B|----------------------------------------|
G|----------------------------------------| 2x
D|---------------3-------------------5----|
A|------3-----1----------5-----3--3-------|
E|---1-----0-------0--3-----0-----------0-|

PRE VERSE:
"I met a girl............"
e|----------------------------------------|
B|----------------------------------------|
G|----------------------------------------|
D|---------------3-------------------5----| 11x
A|------3-----1----------5-----3--3-------|
E|---1-----0-------0--3-----0-----------0-|

e|-----------------------------------------|
B|-----------------------------------------|
G|-------------3-3-3-------------5-5-5-----|4x
D|--3-3-3------3-3-3-----5-5-----5-5-5-----|
A|--3-3-3---0--1-1-1--0--5-5--0--3-3-3--0--|
E|--1-1-1---0---------0--3-3--0---------0--|
               Palm Mute

VERSE:
"In a trap......................."
e|-----------------------------------------|
B|-----------------------------------------|
G|-------------3-3-3-------------5-5-5-----| 8x
D|--3-3-3------3-3-3-----5-5-----5-5-5-----|
A|--3-3-3---0--1-1-1--0--5-5--0--3-3-3--0--|
E|--1-1-1---0---------0--3-3--0---------0--|

(SOLO)
[ Tab from: http://www.guitartabs.cc/tabs/p/puddle_of_mudd/she_hates_me_tab_ver_16.html ]
PRE VERSE 2:
"Thats my story....................."
e|----------------------------------------|     
B|----------------------------------------|     
G|----------------------------------------| 3x
D|---------------3-------------------5----|     
A|------3-----1----------5-----3--3-------|     
E|---1-----0-------0--3-----0-----------0-|     

e|-----------------------------------|
B|-----------------------------------|
G|-----------------------------------|
D|--3-3-3-3-3-3-3-3-3-3-3-3-3-3-3-3--|
A|--3-3-3-3-3-3-3-3-3-3-3-3-3-3-3-3--|
E|--1-1-1-1-1-1-1-1-1-1-1-1-1-1-1-1--|


VERSE:
"She f****** hates me..........."
e|-----------------------------------------|
B|-----------------------------------------|
G|-------------3-3-3-------------5-5-5-----| 8x
D|--3-3-3------3-3-3-----5-5-----5-5-5-----|
A|--3-3-3---0--1-1-1--0--5-5--0--3-3-3--0--|
E|--1-1-1---0---------0--3-3--0---------0--|

e|--------|
B|--------|
G|--------|
D|--3--3--|
A|--3--3--|
E|--1--1--|

OUTRO:
e|-----------------------------------------|
B|-----------------------------------------|
G|-------------3-3-3-------------5-5-5-----| 6x(fade out)
D|--3-3-3------3-3-3-----5-5-----5-5-5-----|
A|--3-3-3---0--1-1-1--0--5-5--0--3-3-3--0--|
E|--1-1-1---0---------0--3-3--0---------0--|


This is my first tab, but I saw Puddle of Mudd play this on "TRL", and I am
absolutly positive that this tab is right.Hope ya like it.It's probably one of
the funnest, and easiest song to play. Rock on!
-Chad Koza (a.k.a "Choad")
Comments