Puddle Of Mudd - She Hates Me Chords & Tabs

 

She Hates Me Chords & Tabs

Puddle Of Mudd Chords & Tabs

Version: 15 Type: Tab 0 ratings
1 star 2 stars 3 stars 4 stars 5 stars
comments

She Hates Me Tab

   
==================================PLEASE NOTE=================================
|This file is the author's own work and represents their interpretation of the |
|song. You may only use this file for private study, scholarship, or research. |
==============================================================================
               
                                  SHE HATES ME
                          As recorded by Puddle of Mudd
                        (From the 2001 Album COME CLEAN)

Music by Wesley Scantlin and Jimmy Allen
From: Guitar World Mag. -->(by Andy Aledort)<--
Transcribed by Juan Carlos Almodovar

This version of this song is right.All the tabs I've seen 
for this song are wrong. I had to keep it simple, just the
main riffs but I might post the solo a little later for ya
        [[>>Font: Courier<<]]
[ Tab from: http://www.guitartabs.cc/tabs/p/puddle_of_mudd/she_hates_me_tab_ver_15.html ]
           Chords used: 
          (Represent Melody not exact chord)
      ======================
      | F       1 3 3 2 x x  |             
      | Bb5     x 1 3 3 x x  |              
      |	G       3 5 5 4 x x  |           
      |	C5      x 3 5 5 x x  |                              
      |	F5      1 3 3 x x x  |          
      |	G5      3 5 5 x x x  |         
      |	Bb5VI   6 8 8 x x x  |            
      |	C       x 3 5 5 5 x  |
      ======================
                            

Gtr 1 (Eb Ab Db Gb Bb Eb)

 Intro                                     1st Verse (0:09)
  Q=108
|---------------|--------------------||-||----------------|-------------------|
|---------------|-------------------o||-||o---------------|-------------------|
|----2------3---|---4-----------5----||-||-----2------3---|---4-----------5---|
|----3------3---|---5-----------5----||-||-----3------3---|---5-----------5---|
|------0-1----0-|-5---0-3-(3)-3---0-o||-||o------0-1----0-|-5---0-3-(3)-3---0-|
|-1-------------|-3------------------||-||--1-------------|-3-----------------|


|-----|----------|This is the little riff you hear over the main one.
|-----|----------|riff you hear over the main one.
|-5h7p|=5--------|
|-----|----------|
|-----|----------|
|-----|----------|

 Chorus 
|-------------|--------------------||
|-------------|--------------------||
|-2-2---3-3---|-------5-5---5------||
|-3-3---3-3-0-|-5-5---5-5---5------||
|-3-3-0-1-1-0-|-5-5-0-3-3-3-3-0----||
|-1-1-0-------|-3-3-0--------------||

Have fun and practice until your fingers bleed!

Tablature Legend
----------------
 h   - hammer-on
 p   - pull-off
 b   - bend
 pb  - pre-bend
 r   - bend release (if no number after the r, then release immediately)
 /\  - slide into or out of (from/to "nowhere")
Comments