Puddle Of Mudd - She Hates Me Chords & Tabs

 

She Hates Me Chords & Tabs

Puddle Of Mudd Chords & Tabs

Version: 13 Type: Tab 0 ratings
1 star 2 stars 3 stars 4 stars 5 stars
comments

She Hates Me Tab

   
INTRO:

Munite:0.00/1.19 and 2.18/2.30
E---------------------------|
B---------------------------|
G---------------------------|
D----2-----7-----4-----9----|
A----2-----7-----4-----9----|
E--0---0-5---0-2---7-7------|



Munite:1.19/2.18 and 2.30/3.36

    E5        A5        F#5       H5
E-----------------------------------------|
B-----------------------------------------|
G-----------------------------------------|
D-2-2-2-2---7-7-7-7---4-4-4-4---9-9-9-9---|
A-2-2-2-2---7-7-7-7---4-4-4-4---9-9-9-9---|
E-0-0-0-0---5-5-5-5---2-2-2-2---7-7-7-7---|

Solo:

Minute: 1.55/2.12
e-----------------------------------------------------------------
b-----------------------------------------------------------------
g---------3-3-3-3---3---5--5b--5~~--------3-3-3-3-4---4-5~~--5-5~-
d-3-3-3-3--------/5---5-----------3-3-3-3-----------5-------------
a-----------------------------------------------------------------
e-----------------------------------------------------------------
[ Tab from: http://www.guitartabs.cc/tabs/p/puddle_of_mudd/she_hates_me_tab_ver_13.html ]
e-----------------------------------------------------------------
b-----------------------------------------------------------------
g----------15151515---15--17b~--1717~~----------15151515---16--17b 2x
d-15151515----------17--17-------------15151515----------17--17---
a-----------------------------------------------------------------
e-----------------------------------------------------------------

Lyrics:

Met a girl, thought she was grand
fell in love, found out first hand
went well for a week or two
then it all came unglued

in a trapp trip I can't grip
never thought I'd be the one who'd slip
then I started to realize
I was living one big lie

She fucking hates me
trust
she fucking hates me
la la la love
I tried too hard
and she tore my feelings like I had none
and ripped them away

She was queen for about an hour
after that shit got sour
she took all I ever had
no sign of guilt
no feeling of bad, no

In a trapped trip I can't grip 
never thought i'd be the one who'd slip
then I started to realize
I was living one big lie

[Chorus]

that's my story, as you see
learned my lesson and so did she
now it's over and i'm glad 
'cause i'm a fool for all i've said

[Chorus]

la la la la la la la la la love
Trust
la la la la la la la la la love
Trust
and she tore my feelings like I had none
she fucking hates me

Bass Tabs:
G|---------------------------------|
D|---------------------------------|
A|---------0-0-0-0---------2-2-2-2-|
E|-0-0-0-0---------2-2-2-2---------|



I hope you understand this tab. Itīs a very easy tab. I like it very much.
Comments