Puddle Of Mudd - She Hates Me Chords & Tabs

 

She Hates Me Chords & Tabs

Puddle Of Mudd Chords & Tabs

Version: 1 Type: Tab 2 ratings
1 star 2 stars 3 stars 4 stars 5 stars
comments

She Hates Me Tab

Artist : Puddle_of_Mudd
Album : Come_Clean
Song : She_Hates_Me
Standard : Tuning
Tabbed BY : Everett_Hoesing
Email : psycho_boy33@yahoo.com

I got part of this from rycof at mxtabs i think but it
wasn't completly right so here it is.

[ Tab from: http://www.guitartabs.cc/tabs/p/puddle_of_mudd/she_hates_me_tab.html ]
e|---------------------------------------------------|
B|----------------------------------2-0--------------|
G|----1--------2-1-----3-----------------------------|
D|---------------------------------------------------|
A|----------0------------------2-2-------------------|
E|-0-----0----------2-----2--------------------------|

e|------------------------------|
B|------------------------------|
G|-------2222--------4444-------|
D|-2222--2222--4444--4444-------|
A|-2222--0000--4444--2222-------|
E|-0000--------2222-------------|

That is what i got so if ou have any questions or changes
send them to me at my email address and i will change them
Comments