Puddle Of Mudd - She Hates Me Solo Chords & Tabs

 

She Hates Me Solo Chords & Tabs

Puddle Of Mudd Chords & Tabs

Version: 2 Type: Tab 0 ratings
1 star 2 stars 3 stars 4 stars 5 stars
comments

She Hates Me Solo Tab

I do believe this solo is right but i'm not 100% sure. Have fun!

Do this with a Wah-Wah pedal 

e---------------------------------------------------------------------
b---------------------------------------------------------------------
G-----------------------4--4h7-4--------------------------4-4h7-4-----------
D----------/7777--4-7-4---------------------/7777---4-4-7-------------
A---/7777----------------------------/7777----------------------------
E---------------------------------------------------------------------

[ Tab from: http://www.guitartabs.cc/tabs/p/puddle_of_mudd/she_hates_me_solo_tab_ver_2.html ]
e---------------------------------------------------------------------
b---------------------------------------------------------------------
G--------------------------------------10--10h13-10-------------------
D---------------/12-12-12-12--10-13-10--------------------------------
A--/12-12-12-12-------------------------------------------------------
E---------------------------------------------------------------------

e---------------------------------------------------------------------
b----------------------------------------10---------------------------
G-----------------/12-12-12-12--10-13-10------------------------------
D---/12-12-12-12------------------------------------------------------
A---------------------------------------------------------------------
E---------------------------------------------------------------------

if you have any corrections please e-mail me at tinygoat2@yahoo.com
thanx
Comments