Puddle Of Mudd - She Hates Me Chords & Tabs

 

She Hates Me Chords & Tabs

Puddle Of Mudd Chords & Tabs

Version: 5 Type: Bass Tab 0 ratings
1 star 2 stars 3 stars 4 stars 5 stars
comments

She Hates Me Bass Tab

Puddle Of Mudd
She Fucking Hates Me
Transcrito por Marco Lesmes

Intro:

G|----------------------------|
D|----------------------------|
A|------2/3---3-----4/5-4-5-4-|
E|-3------------5-------------|
[ Tab from: http://www.guitartabs.cc/tabs/p/puddle_of_mudd/she_hates_me_btab_ver_5.html ]
Chorus:
G|-----------------------------|
D|-----------------------------|
A|------2/3333-------4/5-4-5-4-|
E|-3333---------5555-----------|

Again:

G|----------------------------|
D|----------------------------|
A|------2/3---3-----4/5-4-5-4-|
E|-3------------5-------------|

And:
G|-----------------------------|
D|-----------------------------|
A|------2/3333-------4/5-4-5-4-|
E|-3333---------5555-----------|

Comentarios o dudas a exelood@hotmail.com
Comments