Puddle Of Mudd - She Hates Me Chords & Tabs

 

She Hates Me Chords & Tabs

Puddle Of Mudd Chords & Tabs

Version: 4 Type: Bass Tab 0 ratings
1 star 2 stars 3 stars 4 stars 5 stars
comments

She Hates Me Bass Tab

this is just a guess if its wrong please go ahead and leave corrections

no bass in intro but starts half way through verse it starts after 
"then it all came unglued"

do this for first verse
G-----------------
D-----------------
A----00----22(22)-
E-00----22--------
[ Tab from: http://www.guitartabs.cc/tabs/p/puddle_of_mudd/she_hates_me_btab_ver_4.html ]
then this for chorus and rest of song 
G----------------------
D----------------------
A------0000------2-222-
E-0000------2222-------

then bo back to
G-----------------
D-----------------
A----00----22(22)-
E-00----22--------
for the last verse

Then this for chorus
G----------------------
D----------------------
A------0000------2-222-
E-0000------2222-------
Comments