Puddle Of Mudd - Poke Out My Eyes Chords & Tabs

 

Poke Out My Eyes Chords & Tabs

Puddle Of Mudd Chords & Tabs

Version: 1 Type: Tab 0 ratings
1 star 2 stars 3 stars 4 stars 5 stars
comments

Poke Out My Eyes Tab

   
----------------------------------------------------------------------------
			     Poke Out My Eyes - Puddle of Mudd
----------------------------------------------------------------------------
Tabbed by: Naterack


Tuning:(Db,Gb,B,E,Ab,Db)

e|--------------------------------------------------------------------------|
B|--------------------------------------------------------------------------|
G|--------------------------------------------------------------------------|
D|---2-2-5---2-2-4---5---2-4------------------------------------------------|
A|---2-2-5---2-2-4---5---2-4------------------------------------------------|
E|---0-0-3---0-0-2---3---0-2------------------------------------------------|

e|--------------------------------------------------------------------------|
B|--------------------------------------------------------------------------|
G|--------------------------------------------------------------------------|
D|--2--4-5-5-7---2--4-5-5-7---2--4-5-5-7---2--4-5-5-7-----------------------|
A|--2--4-5-5-7---2--4-5-5-7---2--4-5-5-7---2--4-5-5-7-----------------------|
E|--0--2-3-3-5---0--2-3-3-5---0--2-3-3-5---0--2-3-3-5-----------------------|

e|--------------------------------------------------------------------------|
B|--------------------------------------------------------------------------|
G|--------------------------------------------------------------------------|
D|--7--2--5--7--2--5--------------------------------------------------------|
A|--7--2--5--7--2--5--------------------------------------------------------|
E|--5--0--3--5--0--3--------------------------------------------------------|

e|--------------------------------------------------------------------------|
B|--------------------------------------------------------------------------|
G|--------------------------------------------------------------------------|
D|--2--4-5-5-7---2--4-5-5-7---2--4-5-5-7---2--4-5-5-7-5-4-2-----------------|
A|--2--4-5-5-7---2--4-5-5-7---2--4-5-5-7---2--4-5-5-7-5-4-2-----------------|
E|--0--2-3-3-5---0--2-3-3-5---0--2-3-3-5---0--2-3-3-5-3-2-0-----------------|
[ Tab from: http://www.guitartabs.cc/tabs/p/puddle_of_mudd/poke_out_my_eyes_tab.html ]
e|--------------------------------------------------------------------------|
B|--------------------------------------------------------------------------|
G|--------------------------------------------------------------------------|
D|--7--2--5--7--2--5--------------------------------------------------------|
A|--7--2--5--7--2--5--------------------------------------------------------|
E|--5--0--3--5--0--3--------------------------------------------------------|

e|--------------------------------------------------------------------------|
B|--------------------------------------------------------------------------|
G|--------------------------------------------------------------------------|
D|--5-2-7---5-4-2-4--5-4-2-4----5-2-7---5-4-2-4---5-4-2-4-------------------|
A|--5-2-7---5-4-2-4--5-4-2-4----5-2-7---5-4-2-4---5-4-2-4-------------------|
E|--3-0-5---3-2-0-2--3-2-0-2----3-0-5---3-2-0-2---3-2-0-2-------------------|

e|--------------------------------------------------------------------------|
B|--12^--12^--12^-----------------------------------------------------------|
G|-----------------12--10----------10-12----------10-12-12^-12-10--10-12----|
D|-------------------------9-11-12---------9-11-12--------------------------|
A|--------------------------------------------------------------------------|
E|--------------------------------------------------------------------------|

e|--------------------------------------------------------------------------|
B|-11-12--12^-12^h15-12h15-12h15-12h15--12-11-------------------------------|
G|---------------------------------------------12--10-----------10-12-------|
D|------------------------------------------------------9-11-12-------9-11--|
A|--------------------------------------------------------------------------|
E|--------------------------------------------------------------------------|

e|--------------------------------------------------------------------------|
B|------------12+--12+------------------------------------------------------|
G|-12-12^-10----------------------------------------------------------------|
D|--------------------------------------------------------------------------|
A|--------------------------------------------------------------------------|
E|--------------------------------------------------------------------------|

e|--------------------------------------------------------------------------|
B|--------------12+-----------12+-------------------------------------------|
G|--------------------------------------------------------------------------|
D|---2-2-5-5-7-7---2-2-5-5-7-7---2--4-5-7--2--------------------------------|
A|---2-2-5-5-7-7---2-2-5-5-7-7---2--4-5-7--2--------------------------------|
E|---0-0-3-3-5-5---0-0-3-3-5-5---0--2/3-5--0--------------------------------|
pm.............................

| /  slide up
| \  slide down
| h  hammer-on
| p  pull-off
| ~  vibrato
| +  harmonic
| x  Mute note
============================================================================
Comments