Puddle Of Mudd - Drift And Die Chords & Tabs

 

Drift And Die Chords & Tabs

Puddle Of Mudd Chords & Tabs

Version: 9 Type: Tab 0 ratings
1 star 2 stars 3 stars 4 stars 5 stars
comments

Drift And Die Tab

   
           Puddle Of Mudd
           Drift And Die
         Tuning = Eb Ab Db Gb Bb Eb

          /=Slide Easy Enough?

     ---1-0-0--
     ---3-3-3--
     ---2-2---- Intro/Verse Listen to the damn 
     -------2-- song and figure out the rythm.
     -------3-- Put it this way, im too lazy to 
     ---------- figure it out for you.
[ Tab from: http://www.guitartabs.cc/tabs/p/puddle_of_mudd/drift_and_die_tab_ver_9.html ]
     ---------------
     ---------------
     ---7-5-4-3/5--- Chorus Same thing find out your
     ---7-3-2-3/3--- own rythm for this. I happen to 
     ---5-3-2-1/3--- suffer from l.s Lazy Syndrome.
     ---------------

     -----------------------------
     -----------------------------
     ---7/5/7--------------------- Solo part
     ---5/3/5---------------------
     ---5/3/5-----3---3-5-5-5-5---
     ---------1-3---3-------------

     
     --------------------------
     ---7-5-4-3/5----------7---
     ---7-3-2-3/3---End-on-5---
     ---5-3-2-1/3----------5---
     --------------------------
Comments