Puddle Of Mudd - Drift And Die Chords & Tabs

 

Drift And Die Chords & Tabs

Puddle Of Mudd Chords & Tabs

Version: 6 Type: Tab 0 ratings
1 star 2 stars 3 stars 4 stars 5 stars
comments

Drift And Die Tab

This is how my friend taught me, he did it on acoustic and in dropped d, turned 
a half step down. He just showed me the verse and chorus, but if anybody has tabbed 
the solo please post it cause this song is awesome

         VERSE
[ Tab from: http://www.guitartabs.cc/tabs/p/puddle_of_mudd/drift_and_die_tab_ver_6.html ]
Eb|---3-3-3--2-2-2-2-2-2-|
Bb|---3-3-3--3-3-3-3-3-3-|
Gb|---2-2-2--2-2-2-2-2-2-|  Play twice
Db|---0-0-0--0-0-0-0-0-0-|
Ab|----------------------|
Db|----------------------|
        
        Then 

Eb|----------------------|
Bb|---3-3-3--3-3-3-3-3-3-|
Gb|---0-0-0--0-2-2-2-2-2-|  Play Twice
Db|---2-2-2--0-0-0-0-0-0-|
Ab|---3-3-3--2-2-2-2-2-2-|
Db|----------3-3-3-3-3-3-|


        Chorus

Eb|--------------------------|
Bb|---3-3-3--3-3----------3-3|
Gb|---2-2-2--0-2----------0-0|  Play Twice
Db|---0-0-0--2-0----------2-2|
Ab|----------3-1--1-1-1-1-3-3|
Db|---------------1-1-1-1----|
Comments