Puddle Of Mudd - Drift And Die Chords & Tabs

 

Drift And Die Chords & Tabs

Puddle Of Mudd Chords & Tabs

Version: 3 Type: Chords 0 ratings
1 star 2 stars 3 stars 4 stars 5 stars
comments

Drift And Die Chords

   
This tab is the closest I have got. Went through quite a few as well. Most credit to jdyoung101@hotmail.com

Tune down a half step. (you don't really need to unless playing against the song itself)



INTRO:

        Dm        Dsus2   Dm      Dsus2      Cadd9  G       Cadd9   G
e-------1---------0-------1-------0----------0------0-------0-------0-------]
b-------3---------3-------3-------3----------3------3-------3-------3-------]
g-------2---------2-------2-------2----------0------0-------0-------0-------]  REPEAT UNTIL BRIDGE
d-------x---------x-------x-------x----------2------0-------2-------0-------]
a-------x-------- x-------x-------x----------3------2-------3-------2-------]
e-------x---------x-------x-------x----------0------3-------0-------3-------]


BRIDGE
[ Tab from: http://www.guitartabs.cc/tabs/p/puddle_of_mudd/drift_and_die_crd_ver_3.html ]
e---x-----x-----x----x----x----]                         
b---x-----x-----x----x----x----]                         
g---7-----5-----x----x----x----]   REPEAT 
d---7-----5-----5----3/---5----]
a---5-----3-----5----3/---5----]
e---x-----x-----3----1/---3----]

CHORUS IS SAME AS BRIDGE, JUST DIFFERENT STRUM PATTERN

THEN THERE IS A LITTLE CHANGE UP, IT GOES LIKE THIS:

e---x---x----x----x----x----x----x----x----x----x----x----x----x----x-----]
b---x---x----x----x----x----x----x----x----x----x----x----x----x----x-----]
g---7---5----7----x----5----x----5----7----5----7----5----x----x----x-----]
d---7---5----7----5----5----5----5----7----5----7----5----5----3/---5-----]
a---5---3----5----5----3----5----3----5----3----5----3----5----3/---5-----]
e---x---x----x----3----x----3----x----x----x----x----x----3----1/---3-----]


Enjoy
(jumphazard@hotmail.com)
Comments